PrimaNota.ru - самый крупный в мире бесплатный архив песенных текстов, аккордов, табулатур и нот


Mike Rutherford - Out Into The Daylight - таба, видео

Регистрация Запомнить меня
Войти через:  Facebook Google Twitter Vk Yandex Mail.ru

Mike Rutherford - Out Into The Daylight - таба, видео

Печатать
Просмотров: 74
Title: 		Out into the daylight
Artist: 	Mike Rutherford
transcription: 	Carlo Elia Briganti  tarpabettencourt@hotmail.com>

I spent a year to study and transcribe this song, it's the result of my
own work
I hope you'll enjoy it!
It's divided in "phrases",not in scores,it was too difficult! ;)
There are only E,B,G,D strings written, because Mike seems don't use the 
other ones in this song...

intro: optional tapping on D string, frets: 13-1

E 6-6p4p3------------- |
B.-------4-6/8-4-6B(1).|
G.--------------------.|
D -------------------- |

|3-4/6/8/-6\4\3-6-8/10/11-10-8\6-11-//11-----11-13/15|
|----------------------------------4----13/15--------|
|----------------------------------------------------|
|----------------------------------------------------|

| ----3---3-4-4-3-4B(1)-4p3------- | ----------- |8-10-11p10--8-10p8|
|.-4/6-4/6-------------------4/6-4.|.-4-4/6-4/6-.|----------11------|
|.3--(3)(2nd time)----------3-----.|.3---------3.|------------------|
| -------------------------------- | ----------- |------------------|

A                      B                                               C
| //15-13-11-18B(1)-18 | 11-13-13B(1)-13-11-13 | 11-13-16p(15)13-13/15 |
|.-------------------- |.---------------------.| ---------------------.|
|.-------------------- |.---------------------.| ---------------------.|
| -------------------- | --------------------- | --------------------- |

| 18p16-18p16-18-15p13-15p13-15p13--------------------------------|
|.--------------------------------18p16-18p16-18-15p13-15p13-15p13|
|.----------------------------------------------------------------|
| ----------------------------------------------------------------|

|------------------------------------------------- |
|-------------------------------------------------.|
|17p15-17p15-17-3p1-3p1-3p1-----------------------.|
|--------------------------5p3-5p3-5-3p1-3p1-3p1-1 |


|18p16-18p16-18-15p13-15p13-15p13--------------------------------|
|--------------------------------18p16-18p16-18-15p13-15p13-15p13|
|----------------------------------------------------------------|
|----------------------------------------------------------------|

|-----------------15--15-15/18-15/18\15--15-----------------------|
|--------16--16-18--18-----------------18--18-16-18p16-18p16-18p16|
|17-15-17--17-----------------------------------------------------|
|-----------------------------------------------------------------|

|-----------------------------------------------|
|-----------------------------------------------|
|17-15-3h(5)6-3h(5)6-3h(5)6-3h(5)6-6h(5)3-------|
|----------------------------------------6-3-5-3|

|//20-18-15-11-//18-16-13-10-//15-11-8---------------------------------|
|----------------------------------------------------------------------|
|-------------------------------------8-10-10Bb(1)-13-13Bb(1)-15-15Bb(1|
|----------------------------------------------------------------------|

|3hp4(12 times in 4 scores)|
|--------------------------|
|--------------------------|
|--------------------------|

Tapping zone!
                                                         1______________
   +'''''''''''''''  +'''''''''''''''  +'''''''''''''''  +''  +''  +'' |
| 16-3hp4-3hp4-3hp4-15-3hp4-3hp4-3hp4-13-3hp4-3hp4-3hp4|13-3-15-3-15-3 |
|.-----------------------------------------------------|--------------.|
|.-----------------------------------------------------|--------------.|
| -----------------------------------------------------|-------------- |
_______2
| +''  +''  +''
|13-3-15-3-16-3|
|--------------|
|--------------|
|--------------|
  +'''''''''''''''  +'''''''''''''''  +'''''''''''''''  +''  +''  +''
|18-4hp6-4hp6-4hp6-16-4hp6-4hp6-4hp6-15-4hp6-4hp6-4hp6-15-4-16-4-18-4|
|--------------------------------------------------------------------|
|--------------------------------------------------------------------|
|--------------------------------------------------------------------|
  +'''''''''''''''  +'''''''''''''''  +'''''''''''''''  +''  +''  +''
|20-6hp8-6hp8-6hp8-18-6hp8-6hp8-6hp8-16-6hp8-6hp8-6hp8-16-6-18-6-20-6|
|--------------------------------------------------------------------|
|--------------------------------------------------------------------|
|--------------------------------------------------------------------|
  +'''''''''''''''  +'''''''''''''''  +'''''''''''''''  +''  +''  +''
|21-8hp9-8hp9-8hp9-20-8hp9-8hp9-8hp9-18-8hp9-8hp9-8hp9-18-8-20-8-21-8|
|--------------------------------------------------------------------|
|--------------------------------------------------------------------|
|--------------------------------------------------------------------|
				         (End of Tapping zone)
   +'''''  +'''''  +'''''  +'''''  +'''''  +'''''
|13-9-11-13-9-11-13-9-11-13-9-11-13-9-11-13-9-11|-----------|16-13|
|-----------------------------------------------|from A to C|-----|
|-----------------------------------------------|-----------|-----|
|-----------------------------------------------|-----------|-----|

D
| 11Bb(1)-9-11Bb(1) |10-11-11/13-15-15/18-11|
|.-----------------.|-----------------------|
|.-----------------.|-----------------------|
| ----------------- |-----------------------|
E
| ----------------------------------- |
| from A to B, from D to E, then CODA |
| ----------------------------------- |
| ----------------------------------- |

Coda
| 7-7-9-9/10-9-9-10-10/15-15p13-12B(1/2)-12b(1/2)-(12)p11 |
| ------------------------------------------------------- |
| ------------------------------------------------------- |
| ------------------------------------------------------- |


B(x): up bending, x=step -- b(x): release bending, x=starting tone
p: pull off -- h: hammer on
+: tapped freet with the right hand
'''' hp: notes under tap, continuos hammer & pull
/: slide up -- \:slide down -- //:long glissato (on the whole neck)
xp(y)z: pull off legato -- xh(y)z: hammer on legato
     
Добавлено: 22.07.2013
Вам также может быть интересно:
Другие материалы по этой песне:
  • Аккорды и текст

Страница создана 22.07.2013
http://primanota.ru/mike-rutherford/out-into-the-daylight-chords.htm
Привет, Гость.
Предлагаем пройти революционный курс по гитаре.
Подарок от PrimaNota.Ru, забирай!