PrimaNota.ru - самый крупный в мире бесплатный архив песенных текстов, аккордов, табулатур и нот


Mike Posner - Cooler Then Me - таба, видео

Регистрация Запомнить меня
Войти через:  Facebook Google Twitter Vk Yandex Mail.ru

Mike Posner - Cooler Then Me - таба, видео

Печатать
Просмотров: 204
This tab is based on the (much better) acoustic version of "Cooler Than Me", which can 
be found at . This is also my first tab, so 
take it easy...

Points to note:

1) In the 2nd bar, what looks like 1010 is actually two 10's. Once you've plucked the 
10th fret on the g string, play the full chord and let it ring!!!

2) In the 8th bar, the chord I have selected is roughly F5, which is a power chord. I 
recommend not playing a full chord and just pluck the strings as the tab indicates.

3) Although the Intro, Verses and Chorus are roughly the same, I have gone the whole 9 
yards and put them all down, as some of them have slight differences.

4) / = slide
   h = hammer
   p = pull off

I'm fairly confident that this is what the guitarist plays... If there are any issues 
with timing, then refer to the video... Please enjoy and feel free to comment...


Intro

  EbMaj7  Dm7      Gm7                  EbMaj7  Dm7      Gm7
e|6---6---5---5---| -- - -10-----------|6---6---5---5---| -- - -10-----------|
b|8---8---6---6---| -- - -11-----------|8---8---6---6---| -- - -11-----------|
g|7---7---5---5---| -- -1010-----------|7---7---5---5---| -- -1010-----------|
D|8---8---7---7---| --12 -12-----------|8---8---7---7---| --12 -12-----------|
A|6---6---5---5--8/10- - -10-----------|6---6---5---5--8/10- - -10-----------|
E|x---x---x---x---| -- - - x-----------|x---x---x---x---| -- - - x-----------|

  EbMaj7  Dm7      Gm7                  EbMaj7           F5
e|6---6---5---5---| -- - -10-----------|6---------------|-- - -8-----------|
b|8---8---6---6---| -- - -11-----------|6h8-------------|-- - -------------|
g|7---7---5---5---| -- -1010-----------|7---------------|-- -10------------|
D|8---8---7---7---| --12 -12-----------|8---------------|--10 -------------|
A|6---6---5---5--8/10- - -10-----------|6--------------6/8- - -------------|
E|x---x---x---x---| -- - - x-----------|x---------------|-- - - -----------|

Verse 1

  EbMaj7  Dm7      Gm7                  EbMaj7  Dm7      Gm7
e|6---6---5---5---| -- - -10-----------|6---6---5---5---| -- - -10-----------|
b|8---8---6---6---| -- - -11-----------|8---8---6---6---| -- - -11-----------|
g|7---7---5---5---| -- -1010-----------|7---7---5---5---| -- -1010-----------|
D|8---8---7---7---| --12 -12-----------|8---8---7---7---| --12 -12-----------|
A|6---6---5---5--8/10- - -10-----------|6---6---5---5--8/10- - -10-----------|
E|x---x---x---x---| -- - - x-----------|x---x---x---x---| -- - - x-----------|

  EbMaj7  Dm7      Gm7                  EbMaj7           F5
e|6---6---5---5---| -- - -10-----------|6-------6-------|-- - -8-----------|
b|8---8---6---6---| -- - -11-----------|6h8-----8-------|-- - -------------|
g|7---7---5---5---| -- -1010-----------|7---------------|-- -10------------|
D|8---8---7---7---| --12 -12-----------|8---------------|--10 -------------|
A|6---6---5---5--8/10- - -10-----------|6--------------6/8- - -------------|
E|x---x---x---x---| -- - - x-----------|x---------------|-- - - -----------|

Verse 2

  EbMaj7  Dm7      Gm7                  EbMaj7  Dm7      Gm7
e|6---6---5---5---| -- - -10-----------|6---6---5---5---| -- - -10-----------|
b|8---8---6---6---| -- - -11-----------|8---8---6---6---| -- - -11-----------|
g|7---7---5---5---| -- -1010-----------|7---7---5---5---| -- -1010-----------|
D|8---8---7---7---| --12 -12-----------|8---8---7---7---| --12 -12-----------|
A|6---6---5---5--8/10- - -10-----------|6---6---5---5--8/10- - -10-----------|
E|x---x---x---x---| -- - - x-----------|x---x---x---x---| -- - - x-----------|

  EbMaj7  Dm7      Gm7                  EbMaj7           F5
e|6---6---5---5---| -- - -10-----------|6-------6-------|-- - -8-----------|
b|8---8---6---6---| -- - -11-----------|6h8-----8-------|-- - -------------|
g|7---7---5---5---| -- -1010-----------|7---------------|-- -10------------|
D|8---8---7---7---| --12 -12-----------|8---------------|--10 -------------|
A|6---6---5---5--8/10- - -10-----------|6--------------6/8- - -------------|
E|x---x---x---x---| -- - - x-----------|x---------------|-- - - -----------|

Verse 3

  EbMaj7  Dm7      Gm7                  EbMaj7  Dm7      Gm7
e|6---6---5---5---| -- - -10-----------|6---6---5---5---| -- - -10-----------|
b|8---8---6---6---| -- - -11-----------|8---8---6---6---| -- - -11-----------|
g|7---7---5---5---| -- -1010-----------|7---7---5---5---| -- -1010-----------|
D|8---8---7---7---| --12 -12-----------|8---8---7---7---| --12 -12-----------|
A|6---6---5---5--8/10- - -10-----------|6---6---5---5--8/10- - -10-----------|
E|x---x---x---x---| -- - - x-----------|x---x---x---x---| -- - - x-----------|

  EbMaj7  Dm7      Gm7                  EbMaj7           F5
e|6---6---5---5---| -- - -10-----------|6---6---6---6---|-- - -8-----------|
b|8---8---6---6---| -- - -11-----------|6---6---6---6---|-- - -------------|
g|7---7---5---5---| -- -1010-----------|7---7---7---7---|-- -10------------|
D|8---8---7---7---| --12 -12-----------|8---8---8---8---|--10 -------------|
A|6---6---5---5--8/10- - -10-----------|6---6---6---6--6/8- - -------------|
E|x---x---x---x---| -- - - x-----------|x---x---x---x---|-- - - -----------|

Verse 4

  EbMaj7  Dm7      Gm7                  EbMaj7  Dm7      Gm7
e|6---6---5---5---| -- - -10-----------|6---6---5---5---| -- - -10-----------|
b|8---8---6---6---| -- - -11-----------|8---8---6---6---| -- - -11-----------|
g|7---7---5---5---| -- -1010-----------|7---7---5---5---| -- -1010-----------|
D|8---8---7---7---| --12 -12-----------|8---8---7---7---| --12 -12-----------|
A|6---6---5---5--8/10- - -10-----------|6---6---5---5--8/10- - -10-----------|
E|x---x---x---x---| -- - - x-----------|x---x---x---x---| -- - - x-----------|

  EbMaj7  Dm7      Gm7                  EbMaj7           F5
e|6---6---5---5---| -- - -10-----------|6-------6-------|-- - -8-----------|
b|8---8---6---6---| -- - -11-----------|6h8-----8-------|-- - -------------|
g|7---7---5---5---| -- -1010-----------|7---------------|-- -10------------|
D|8---8---7---7---| --12 -12-----------|8---------------|--10 -------------|
A|6---6---5---5--8/10- - -10-----------|6--------------6/8- - -------------|
E|x---x---x---x---| -- - - x-----------|x---------------|-- - - -----------|

Bridge

  Cm7              Dm7              EbMaj7           EbMaj7
e|3------3--------|5------5--------|6------6--------|6------6--------|
b|3h4----4--------|6------6--------|6h8----8--------|8------8--------|
g|3------3--------|5------5--------|7------7--------|7------7--------|
D|3h5----5--------|7------7--------|8------8--------|8------8--------|
A|3------3--------|5------5--------|6------6--------|6------6--------|
E|x------x--------|x------x--------|x------x--------|x------x--------|

 Cm7              Dm7              EbMaj7           F5
e|3------3--------|5------5--------|6------6--------|-- - -8-----------|
b|3h4----4--------|6------6--------|6h8----8--------|-- - -------------|
g|3------3--------|5------5--------|7---------------|-- -10------------|
D|3h5----5--------|7------7--------|8---------------|--10 -------------|
A|3------3--------|5------5--------|6--------------6/8- - -------------|
E|x------x--------|x------x--------|x---------------|-- - - -----------|

Verse 5

  EbMaj7  Dm7      Gm7                  EbMaj7  Dm7      Gm7
e|6---6---5---5---| -- - -10-----------|6---6---5---5---| -- - -10-----------|
b|8---8---6---6---| -- - -11-----------|8---8---6---6---| -- - -11-----------|
g|7---7---5---5---| -- -1010-----------|7---7---5---5---| -- -1010-----------|
D|8---8---7---7---| --12 -12-----------|8---8---7---7---| --12 -12-----------|
A|6---6---5---5--8/10- - -10-----------|6---6---5---5--8/10- - -10-----------|
E|x---x---x---x---| -- - - x-----------|x---x---x---x---| -- - - x-----------|

  EbMaj7  Dm7      Gm7                  EbMaj7           F5
e|6---6---5---5---| -- - -10-----------|6-------6-------|-- - -8-----------|
b|8---8---6---6---| -- - -11-----------|6h8-----8-------|-- - -------------|
g|7---7---5---5---| -- -1010-----------|7---------------|-- -10------------|
D|8---8---7---7---| --12 -12-----------|8---------------|--10 -------------|
A|6---6---5---5--8/10- - -10-----------|6--------------6/8- - -------------|
E|x---x---x---x---| -- - - x-----------|x---------------|-- - - -----------|

Verse 6

  EbMaj7  Dm7      Gm7                  EbMaj7  Dm7      Gm7
e|6---6---5---5---| -- - -10-----------|6---6---5---5---| -- - -10-----------|
b|8---8---6---6---| -- - -11-----------|8---8---6---6---| -- - -11-----------|
g|7---7---5---5---| -- -1010-----------|7---7---5---5---| -- -1010-----------|
D|8---8---7---7---| --12 -12-----------|8---8---7---7---| --12 -12-----------|
A|6---6---5---5--8/10- - -10-----------|6---6---5---5--8/10- - -10-----------|
E|x---x---x---x---| -- - - x-----------|x---x---x---x---| -- - - x-----------|

  EbMaj7  Dm7      Gm7                  EbMaj7           F5
e|6---6---5---5---| -- - -10-----------|6-6h8p6-6-------|-- - -8-----------|
b|8---8---6---6---| -- - -11-----------|6h8-----8-------|-- - -------------|
g|7---7---5---5---| -- -1010-----------|7---------------|-- -10------------|
D|8---8---7---7---| --12 -12-----------|8---------------|--10 -------------|
A|6---6---5---5--8/10- - -10-----------|6--------------6/8- - -------------|
E|x---x---x---x---| -- - - x-----------|x---------------|-- - - -----------|
Добавлено: 07.10.2013
Другие материалы по этой песне:
  • Аккорды и текст

Страница создана 07.10.2013
http://primanota.ru/mike-posner/cooler-then-me-chords.htm
Привет, Гость.
Предлагаем пройти революционный курс по гитаре.
Подарок от PrimaNota.Ru, забирай!