PrimaNota.ru - самый крупный в мире бесплатный архив песенных текстов, аккордов, табулатур и нот


Mike Oneill - The Real Stuff - аккорды и текст, видео

Регистрация Запомнить меня
Войти через:  Facebook Google Twitter Vk Yandex Mail.ru

Mike Oneill - The Real Stuff - аккорды и текст, видео

Печатать
Просмотров: 18
The Real Stuff
Mike Oneill
------------------------------------------------------------------------------
                         THE REAL STUFF - Mike O'Neill
------------------------------------------------------------------------------
Tabbed by: Pat Malavi
Artist website: http://www.mikeoneillmusic.com/


D  2x023x
A  x0222x
E  02210x


[Verse 1]

D A E D

D                    A
Hot and cold like an old hearthstone
E                     D
Not so skilled at the art of making friends
D                   A
Folding up when the pressure's on
E                   D
Everyone knows when something's going wrong


[Chorus]

    D
But you've got the real stuff
A
You've got the real stuff
E
Your stuff is real
     D                 A
Only you know how that feels


D
You've got the real stuff
A
You've got the real stuff
E
Your stuff is real
     D                 A                 
Only you know how that feels


e|---------------------------------------------------------------------------|
B|---------------------------------------------------------------------------|
G|-------2-------2-----------------------------------------------------------|
D|---2-4-----2-4-----4-2-4---2-----------4-2---------------------------------|
A|-----------------------------0--0-0-0------0--0-0-0------------------------|
E|---------------------------------------------------------------------------|

e|---0--0--0--0--0-0---------------------------------------------------------|
B|---0--0--0--0--0-0---3--2--------------------------------------------------|
G|---1--1--1--1--1-1---------4--2-----2-h4-2---------------------------------|
D|---2--2--2--2--2-2---------------0-----------------------------------------|
A|---2--2--2--2--2-2---------------------------------------------------------|
E|---0--0--0--0--0-0---------------------------------------------------------|


[Verse 2]

D                    A
Madder than you were ever wise
       E                          D
Like a newborn kitten that hasn't opened up its eyes
D                   A
Folding up when the pressure's on
      E                   D
Until everyone knows when something's going wrong


[Chorus]

    D
But you've got the real stuff
A
You've got the real stuff
E
Your stuff is real
     D                 A
Only you know how that feels


D
You've got the real stuff
A
You've got the real stuff
E
Your stuff is real
     D                 A                 
Only you know how that feels


e|---------------------------------------------------------------------------|
B|---------------------------------------------------------------------------|
G|-------2-------2-----------------------------------------------------------|
D|---2-4-----2-4-----4-2-4---2-----------4-2---------------------------------|
A|-----------------------------0--0-0-0------0--0-0-0------------------------|
E|---------------------------------------------------------------------------|

e|---0--0--0--0--0-0---------------------------------------------------------|
B|---0--0--0--0--0-0---3--2-------------------------2------------------------|
G|---1--1--1--1--1-1---------4--2-----2-h4-2--------2------------------------|
D|---2--2--2--2--2-2---------------0----------------2------------------------|
A|---2--2--2--2--2-2--------------------------------0------------------------|
E|---0--0--0--0--0-0---------------------------------------------------------|
Добавлено: 16.06.2016
Другие материалы по этой песне:
  • Аккорды и текст

Страница создана 16.06.2016
http://primanota.ru/mike-oneill/real-stuff-chords.htm
Привет, Гость.
Предлагаем пройти революционный курс по гитаре.
Подарок от PrimaNota.Ru, забирай!