PrimaNota.ru - самый крупный в мире бесплатный архив песенных текстов, аккордов, табулатур и нот


Mike Oldfield - Tubular bell 2003 pt1 - таба, видео

Регистрация Запомнить меня
Войти через:  Facebook Google Twitter Vk Yandex Mail.ru

Mike Oldfield - Tubular bell 2003 pt1 - таба, видео

Печатать
Просмотров: 84
Уроки эстрадного вокала в Санкт-Петербурге


-------------------------------------------------------------------------------
			     Tubular bell 2003 Part 01 - Mike oldfield
			        All Guitars track 01 to 11
-------------------------------------------------------------------------------
Tabbed by: Michel Aubry. Montreal, Quйbec, Canada. March 2008
Email:  kheang@sympatico.ca

Tuning:
 TRACK#1 	3:37   					      repeat  4 times
e|--------------------------/8-7--5h7p5--------------------------------------|
B|------5-----5-6-8--6-5---------------8-5-----------------------------------|
G|-5-7---7-5-7-----------7-5--------------7----------------------------------|
D|---------------------------------------------------------------------------|
A|---------------------------------------------------------------------------|
E|---------------------------------------------------------------------------|
	4:16   							repeat 2 times
e|---------------------------------------------------------------------------|
B|-------------4--4-----4---------------4---4--------------------------------|
G|-6-4-6-4-6-6--6--6h4h6-----6-4-6-4-6-6--6--6h4h6---------------------------|
D|---------------------------------------------------------------------------|
A|---------------------------------------------------------------------------|
E|---------------------------------------------------------------------------|
	4:40						       repeat  4 times
e|-----------------------------------------------11--------------------------|
B|----------------------7-10-7-9-10--10-12-14-9-12----7-7-7-10-9-------------|
G|----------6-8-9--9-9-9--------------------------------------9-8------------|
D|-9-9-9--9--9---------------------------------------------------------------|
A|-------7-------------------------------------------------------------------|
E|---------------------------------------------------------------------------|
  TRACK#2	0:14
e|-------------v------------/4-3h4p3-----------------------------------------|
B|-5p3-3-----3-5---5p3-5p3-5--------5--4p3p2p1-(4 times)--2h3p2 (8 times)-/5-|
G|----5-54245---------5---5--------------------------------------------------|
D|---------------------------------------------------------------------------|
A|---------------------------------------------------------------------------|
E|---------------------------------------------------------------------------|
	   repeat 2 times      0:38  Electric guitar
e|-----------5---------------------------/9-7--------------8--10-13p12p10----|
B|-----3-4-5--/10(12)10(12)----------------------------8-10------------------|
G|4-5-6------------------------------5-7------9--7-9-10----------------------|
D|-------------------------------5-7-----------------------------------------|
A|--------------------------5-7-8--------------------------------------------|
E|---------------------------------------------------------------------------|
					  		       repeat 2 times
e|13p12p10-12(13)-16-12------11-15(16)-11------15---------14151621-22(23)(23)
B|---------------------16(17)------------16(17)--16h17h18--------------------|
G|---------------------------------------------------------------------------|
D|---------------------------------------------------------------------------|
A|---------------------------------------------------------------------------|
E|---------------------------------------------------------------------------|
  track 3   repeat 2 times		1 times
e|----------------------------|----------------------------------------------|
B|----------------------------|----------------------------------------------|
G|----------------------------|----------------------------------------------|
D|---------5------------------|--5-7-5-8-5-7---7-5---------------------------|
A|-5-7-8-7--7-8-5-5-8-7-8-5-5-|-8-----------8-8---7-8-7h8-5-5----------------|
E|----------------------------|----------------------------8-----------------|
			1 times
e|----------------------------|----------------------------------------------|
B|----------------------------|----------------------------------------------|
G|----------------------------|---------------5----7-5-5-9-7--7-5-5----------|
D|---------5------------------|-------5---7-5--7-----------------7-7---------|
A|-5-7-8-7--7-8-5-5-8-7-8-5-5-|-8-7-5--8-5---5--5------------5--------5------|
E|----------------------------|----------------------------------------------|

e|---------------------------------------------------------------------------|
B|---------------------------------------------------------------------------|
G|---------------------------------------------------------------------------|
D|---7/7-------5-----------------5-------------------------------------------|
A|-/5---5--5-7--8-7-5h7p5-5-7-8-7-7-8-5--------------------------------------|
E|-------8---------------8---------------------------------------------------|

  Track 4  0:18 (this is pure Mike Oldfield subtil playing)
e|-7/8---------------9h10--------------8-10--7-8--5-6------------------------|
B|----5-7/8--------------7-9/10--------------------------5/6-----------------|
G|-----7----5-4h5p4-------9----7-6h7p6----------------7-5---3-2h3p2--------4-|
D|-----------------7------------------9----------------------------5---5-7---|
A|--------------------------------------------------------------------5------|
E|---------------------------------------------------------------------------|

e|-------------------------7/8-------------9h10--------------9-10--7-8--5-6--|
B|--------3-------------------5-7/8------------7-9/10------------------------|
G|-2-4-5-4-4-5-2-2-5-4-5-2-----7----5-4h5-------9----7-6h7p6-----------------|
D|---------------------------------------7------------------9----------------|
A|---------------------------------------------------------------------------|
E|---------------------------------------------------------------------------|
				    a bit of the second guitar here at 0:56
e|------------------------|-8-7-8-----8-7h8--/10-8--/12--15-12--17-15-15-----|
B|----5/6-----------------|------10-10-----10-----10---10--------------------|
G|-7-5---3-2h3p2--------4-|-----------------------------------14-------------|
D|--------------5--5-7----|--------------------------------------------------|
A|---------------5--------|--------------------------------------------------|
E|------------------------|--------------------------------------------------|

e|----17(18)17-17-17p15------15----------------------------5--6-7---10-etc---|
B|---------------------17(18)--17p15-----/17-17p15-----------------5---------|
G|----------------------------------14-14---------14--3-2--------------------|
D|-------------------------------------------------------5-------------------|
A|---------------------------------------------------------------------------|
E|---------------------------------------------------------------------------|
   1:30			        repeat 2 times
e|----------------------------------------------|
B|-------------4------4----------------4--------|
G|-6-4-6-4-6-6--6--4-6-----6-4-6-4-6-6---4-6----|
D|----------------------------------------------|
A|----------------------------------------------|
E|----------------------------------------------|
   1:56
e|-------------12----------------------------------12-12h13p12--17-15-17-/12-|
B|-13-15-13-15--15-13p12-----------------13-12-12----15----------------------|
G|---14-----------------14-12-14---14--14----14------------------------------|
D|------------------------------14---14--------------------------------------|
A|---------------------------------------------------------------------------|
E|---------------------------------------------------------------------------|
  						   *pluck stronger
e|-----------------------------------------------------------------------10--|
B|-----------5--10-12-13-12p13-10-12-13-10-12-13-10*-12-13-10-12-13-12h13----|
G|4h5p4-4h5h7---------------------------------------------9------------------|
D|-----7---------------------------------------------------------------------|
A|---------------------------------------------------------------------------|
E|---------------------------------------------------------------------------|

e|---------------------------------------------------------------------------|
B|12h13-13-12h13p12--12------------------------------------------------------|
G|-----------------14--12----------------------------------------------------|
D|-----------------------14-12-10-9h10p9--9----------------------------------|
A|--------------------------------------12-10-12-----------------------------|
E|---------------------------------------------------------------------------|
           Track 06  Bluesy part
e|-------|-----12-12-----12()12()----12-12------------10-10-----10-10----10--|
B|-------|---13-----15-12----------13----15-13-15---12-----13-12-------12----|
G|---7---|-14--------------------14---------------13-----------------13------|
D|--7-9--|-------------------------------------------------------------------|
A|-7-----|-------------------------------------------------------------------|
E|-------|-------------------------------------------------------------------|
                repeat 2 times
e|-10-----10----10-15-14-13-12-|--------------------9/10---9-10-9------9-----|
B|---13-12----12----12-12---13-|-13-12-10---------12-----12------12-10-------|
G|----------13-----------------|---------9--11--12----------------------9----|
D|-----------------------------|---------------------------------------------|
A|-----------------------------|---------------------------------------------|
E|-----------------------------|---------------------------------------------|

e|-----12-14-15-12-14-15-14-12--14-----12-14-16-17--17-17-19-----------------|
B|-13-15----------------------15-----15--------------------------------------|
G|--------------------------------14-----------------------------------------|
D|---------------------------------------------------------------------------|
A|---------------------------------------------------------------------------|
E|---------------------------------------------------------------------------|

e|------------10-9------------9-10--7-9-10-9-10-9--10-9-7-9-10--/12-10--10-12
B|-------10-12----12-10-----12----------------10-8--------------------13-----|
G|9-11-12--------------9-11--------------------------------------------------|
D|---------------------------------------------------------------------------|
A|---------------------------------------------------------------------------|
E|---------------------------------------------------------------------------|

e|--------------------9/10-8-7-8-10------------------------------------------|
B|-/13-12-10-12-13-10---------------11/12-------12---12/13-12-12-13(14)-15---|
G|--------------------------------------14-12-14--14---------14--------------|
D|---------------------------------------------------------------------------|
A|---------------------------------------------------------------------------|
E|---------------------------------------------------------------------------|
   at 1:03 repeat the bleusy part		*2:01
e|--12-13--------------------------------------------------------------------|
B|----------------------77-7---77--------------------------------------------|
G|-------------6-67-7979-----79--99-77-6h7p6---------------------------------|
D|---------*9-9-----------------------------9-9p7-7h99-----------------------|
A|-----------------------------------------------9---------------------------|
E|---------------------------------------------------------------------------|

e|-----------------------5---------------------------------------------------|
B|----------------------7-7---77---------------------------------------------|
G|-------------6-67-7979----79--99-77-6h7p6-------7-9------------------------|
D|----------9-9----------------------------9--9-10---------------------------|
A|---------------------------------------------------------------------------|
E|---------------------------------------------------------------------------|
   2:21  that part is the melody plaid by the piano        repeat 2 times
e|---------------------------------------------------------------------------|
B|-----------8---------------------------------------------------------------|
G|-9--9-7--7--7----------------------------9-----------------7--9------------|
D|-------10------9---9-7-9-10--10-7--7--7-9-9-------7--9--10-----------------|
A|------------------------------------10-----10--10--------------------------|
E|---------------------------------------------------------------------------|

	Track 07
e|-------------------------------|-------------------------------------------|
B|-------------------------------|-------------------------------------------|
G|-------------------------------|---7---5---7---5--9---7-7-----7-7----------|
D|-5--5-5--5-9--9-11-11-11-11-12-|-7-7-5-5-7-7-5-5--9-9-7-7-7-9-7-7-7--------|
A|-3--3-7--7-7--7-9--9--9--9--10-|-7-5-5-3-7-5-5-3--7-9-5-5-7-9-5-5-7--------|
E|-------------------------------|-5---3---5---3------7-----5-7-----5--------|

						  beginning of track 8
e|---------------------------------------------------------------------------|
B|---------------------------------------------------------------------------|
G|-12-----12--7/9-7----12--7-----------12-----12--7/9-7----------------------|
D|-12--12-12--7/9-7-7--12--7--3/8--7---12--12-12--7/9-7-7--------------------|
A|-10--12-10--5/7-5-7--10--5--3/8--7---10--12-10--5/7-5-7--------------------|
E|-----10-----------5---------1/6--5---10-----------5------------------------|

Track 08
e|-/12------/10810810-/17---------10810810-12h13p1210-/17------1513151315/2215
B|----10--10-------------15--10810-----------------------151315--------------|
G|------12-----------------14------------------------------------------------|
D|---5h7---------------------------------------------------------------------|
A|-5----5-5p3----------------------------------------------------------------|
E|--5----5-------------------------------------------------------------------|

e|-------1513151315-17h18p171517------1513151315/2215------1513151315-
B|-151315-----------------------151315---------------151315------------------|
G|---------------------------------------------------------------------------|
D|---------------------------------------------------------------------------|
A|---------------------------------------------------------------------------|
E|---------------------------------------------------------------------------|
                                                                          etc
e|-17h18p171517-|------------------------------------------------------------|
B|--------------|-1214121412--1214121412--1213121312---1213121312--1214121412
G|--------------|------------13----------13----------12----------12----------|
D|--------------|------------------------------------------------------------|
A|--------------|------------------------------------------------------------|
E|--------------|------------------------------------------------------------|

Track 09 - Track10
e|-0---|-----------------2-2----4---------2------------------------2------0--|
B|-0---|-------------0-0----3-0---0-0h1-0---010---0-1--0-------0-----0-------|
G|-0---|----------0-0--------0-0-0-0---0-0-0----2--------2-2-2---2--2-2-0---2
D|-2---|-------2-2----------2-----2-2-----2-2--3-3-3-3--4-4-4-4-4-4----2-2-2-|
A|-2---|----2-2---------------2------------------------2-------2-------------|
E|-0---|-0-0----------------------------------1-----------------------0---0--|

e|-2-4-6-8------8-------2--2-0--0--------------------------------------------|
B|-2-4-6-8------8---------0----0---------------------------------------------|
G|-2-4-6-10-----10-------0----0---8888888/9----------------------------------|
D|-4-6-8-10----810----8-----------8888888/9----------------------------------|
A|-4-6-8-8-1011-8-1011------------6666666/7----------------------------------|
E|-2-4-6-8------8---0---0----0-----------------------------------------------|

  Track 11
e|------------------------0---|----------------------|----------------------|
B|------------------------0---|----------------------|----------------------|
G|------------------------9---|----------------------|----------------------|
D|------------------------9---|------222-0---0-------|------44--42---2------|
A|------------------------7---|-000h2-----204--------|----25------545-------|
E|-5313553135-77535775357-0---|---------------32000--|-222------------54222-|

e|------------------------------------|
B|------------------------------------|
G|------------------------------------|
D|-------7-757-454-------7-757-454----|
A|-00-5h7-----7---75--5h7-----7---75--|
E|------------------55----------------|

   grand piano at 2:48
e|---------------------------------------------------------------------------|
B|-----791097-7h9-79109757p5h7--7----9--7---------9--------------------------|
G|-7h9-------9-----------------7-9--7-77-/9---67-6-7--7--6--7h9--------------|
D|----------------------------9------------9-9-------------------------------|
A|---------------------------------------------------------------------------|
E|---------------------------------------------------------------------------|

| ( )Bend to
| /  slide up
|   slide down
| h  hammer-on
| p  pull-off
| v  vibrato
| +  harmonic
| x  Mute note
===============================================================================

Добавлено: 12.08.2013
Другие материалы по этой песне:
  • Аккорды и текст

Страница создана 12.08.2013
http://primanota.ru/mike-oldfield/tubular-bell-2003-pt1-chords.htm
Привет, Гость.
Предлагаем пройти революционный курс по гитаре.
Подарок от PrimaNota.Ru, забирай!