PrimaNota.ru - самый крупный в мире бесплатный архив песенных текстов, аккордов, табулатур и нот


Mike Oldfield - The Song Of The Sun - таба, видео

Регистрация Запомнить меня
Войти через:  Facebook Google Twitter Vk Yandex Mail.ru

Mike Oldfield - The Song Of The Sun - таба, видео

Печатать
Просмотров: 177
Mike Oldfield
The Song Of The Sun
Voyager

[------------------------------------]
[----------------p-h---------s-------]
[---------------2-0-2----7---\9---9--]
[----h-------------------------------]
[--3---5-----------------------------]
[------------------------------------]


[----------------------------------|-----------10---------------------------]
[----------------------10----------|----10--13----13-12--13-12-12-10----10--]
[--10-9-10--12-10-12------12-10----|-10------------------------------12-----]
[-------------------------------12-|----------------------------------------]
[----------------------------------|----------------------------------------]
[----------------------------------|----------------------------------------]


[--------------------------------------|------------------------------]
[--------------------------10----------|---h--------------------------]
[-----9-10--9-10-12--10-12----12-10----|-10-12-10--9---------9---h----]
[--12-------------------------------12-|-------------12-10-----10-12--]
[--------------------------------------|-------------------12---------]
[--------------------------------------|------------------------------]

00:42 low
[-----------10--------------------------|----------------------------]
[----10--13----13-12--13-12-12-10----10-|---h------------------------]
[-10------------------------------12----|-10-12-10--9---------9------]
[---------------------------------------|-------------12-10------12--]
[---------------------------------------|-------------------12-------]
[---------------------------------------|----------------------------]

00:58
[--------h------------------------------------------------------------------]
[--15--13-15--13----13---------------h-------11-----------------------------]
[----------------15----14--12--10--10-12--14----14--12--14--12--10--9----12-]
[---------------------------------------------------------------------12----]
[---------------------------------------------------------------------------]
[---------------------------------------------------------------------------]


[-------------]
[-------------]
[--10--9------]
[---------12--]
[-------------]
[-------------]


[--------h------------------------------------------------------------------]
[--15--13-15--13----13---------------h-------11-----------------------------]
[----------------15----14--12--10--10-12--14----14--12--14--12--10--9----12-]
[---------------------------------------------------------------------12----]
[---------------------------------------------------------------------------]
[---------------------------------------------------------------------------]

01:15
[----------------------------------|-----------10---------------------------]
[----------------------10----------|----10--13----13-12--13-12-12-10----10--]
[--10-9-10--12-10-12------12-10----|-10------------------------------12-----]
[-------------------------------12-|----------------------------------------]
[----------------------------------|----------------------------------------]
[----------------------------------|----------------------------------------]

[---------------------------------------]
[--------------------------10-----------]
[-----9-10--9-10-12--10-12----12-10-----]
[--12-------------------------------12--]
[---------------------------------------]
[---------------------------------------]

01:52                  s     h  p
[----------------h---10\13-12-13-12---p----|---------------------------]
[---------------8-10----------------13-10--|--10----------------h--s---]
[---------9-10-----------------------------|-------h-----h---10--12\10-]
[--7-7-12----------------------------------|-----10-12-10-12-----------]
[------------------------------------------|---------------------------]
[------------------------------------------|---------------------------]

                                           s     h  p
[-----------------------------------|----10\13-12-13-12-10---10-12-13--]
[----h--p--s---------------------10-|-10-------------------------------]
[--10-12-10\9--------------10-12----|----------------------------------]
[-------------10-----10-12----------|----------------------------------]
[----------------12-----------------|----------------------------------]
[-----------------------------------|----------------------------------]


[--12-13-10---12-13-10--10---s---]
[--------------------------13\---]
[--------------------------------]
[--------------------------------]
[--------------------------------]
[--------------------------------]

02:10
[----------------------------------|-----------10---------------------------]
[----------------------10----------|----10--13----13-12--13-12-12-10----10--]
[--10-9-10--12-10-12------12-10----|-10------------------------------12-----]
[-------------------------------12-|----------------------------------------]
[----------------------------------|----------------------------------------]
[----------------------------------|----------------------------------------]


[--------------------------------------|------------------------------]
[--------------------------10----------|---h--------------------------]
[-----9-10--9-10-12--10-12----12-10----|-10-12-10--9---------9---h----]
[--12-------------------------------12-|-------------12-10-----10-12--]
[--------------------------------------|-------------------12---------]
[--------------------------------------|------------------------------]

02:29
[--------h------------------------------------------------------------------]
[--15--13-15--13----13---------------h-------11-----------------------------]
[----------------15----14--12--10--10-12--14----14--12--14--12--10--9----12-]
[---------------------------------------------------------------------12----]
[---------------------------------------------------------------------------]
[---------------------------------------------------------------------------]


[-------------]
[-------------]
[--10--9------]
[---------12--]
[-------------]
[-------------]


[--------h------------------------------------------------------------------]
[--15--13-15--13----13---------------h-------11-----------------------------]
[----------------15----14--12--10--10-12--14----14--12--14--12--10--9-------]
[---------------------------------------------------------------------12-10-]
[---------------------------------------------------------------------------]
[---------------------------------------------------------------------------]

02:46              s     h  p               h
[------------h---10\13-12-13-12---p----|--10-12-13---12-13-10---12-13--10-]
[-----------8-10----------------13-10--|----------------------------------]
[-----9-10-----------------------------|----------------------------------]
[--12----------------------------------|----------------------------------]
[--------------------------------------|----------------------------------]
[--------------------------------------|----------------------------------]

   h  p                       s     h  p
[10-12-10---|---------------10\13-12-13-12-10-12-13--12-13-10--12-13-10---s]
[---------13|10-----h--s--10--------------------------------------------13\]
[-----------|-----10-12\14-------------------------------------------------]
[-----------|--12----------------------------------------------------------]
[-----------|--------------------------------------------------------------]
[-----------|--------------------------------------------------------------]
                              2 GUITARS  |                                 |
                                         |                                 |
                                        [13-15-17--15-17-13--15-17-13-----15]
                                        [----------------------------17-15--]
                                        [-----------------------------------]
                                        [-----------------------------------]
                                        [-----------------------------------]
                                        [-----------------------------------]

03:04
[----------------------------------|-----------10---------------------------]
[----------------------10----------|----10--13----13-12--13-12-12-10----10--]
[--10-9-10--12-10-12------12-10----|-10------------------------------12-----]
[-------------------------------12-|----------------------------------------]
[----------------------------------|----------------------------------------]
[----------------------------------|----------------------------------------]


[--------------------------------------|------------------------------]
[--------------------------10----------|---h--------------------------]
[-----9-10--9-10-12--10-12----12-10----|-10-12-10--9---------9---h----]X3
[--12-------------------------------12-|-------------12-10-----10-12--]
[--------------------------------------|-------------------12---------]
[--------------------------------------|------------------------------]

03:57
[--------------------s-------h--p-----------------h--p-----------]
[-------b----------8-\-15--17-18-17-15----------15-17-15----15---]
[--10--12-10---------------------------17-14-17----------17------]
[------------12--------------------------------------------------]
[----------------------------------------------------------------]
[----------------------------------------------------------------]

                        h  p             h
[-----15-17-----------15-17-15----20---22-24-22--]
[--18-------18--15-------------------------------]
[------------------------------------------------]
[------------------------------------------------]
[------------------------------------------------]
[------------------------------------------------]
Добавлено: 08.03.2012
Другие материалы по этой песне:
  • Аккорды и текст

Страница создана 08.03.2012
http://primanota.ru/mike-oldfield/the-song-of-the-sun-chords.htm
Привет, Гость.
Предлагаем пройти революционный курс по гитаре.
Подарок от PrimaNota.Ru, забирай!