PrimaNota.ru - самый крупный в мире бесплатный архив песенных текстов, аккордов, табулатур и нот


Mike Oldfield - Serpent Dream - таба, видео

Регистрация Запомнить меня
Войти через:  Facebook Google Twitter Vk Yandex Mail.ru

Mike Oldfield - Serpent Dream - таба, видео

Печатать
Просмотров: 134
SONG Title:     "Serpent Dream" (Acoustic Guitar)    
ARTIST/GROUP:   Mike Oldfield  
TRANSCRIBED By: David Chaves(Costa Rica)
                (csdosage@hotmail.com)
                (http://csdosage.hi5.com)
-----------------------------------------------------------------

Tablature Notation:

h    = hammer-on
p    = pull-off
/    = slide up
\    = slide down
< >  = natural harmonic
ar   = artificial harmonic
~    = vibrato
pm--|= palm muting
b    = bending
r    = release

Questions, comments, complaints at csdosage@hotmail.com

Intro. (0:00-0:17)
e|---------------------------------------------------------------|
B|-------------0h1p0---0--------------------0h1p0---0------------|
G|---------1h2-------2---1h2p2---1------1h2-------2---1h2p1---1--|
D|-2---2h3---------------------3----2h3---------------------3----|
A|---------------------------------------------------------------|
E|---------------------------------------------------------------|

e|---------------------------------------0h1p0---0-1-3-1h3p1p0---|
B|---------0h1p0---0-1-3-1h3p1p0---0-1-3-------3-----------------|
G|-----1h2-------2---------------2-------------------------------|
D|-2h3-----------------------------------------------------------|
A|---------------------------------------------------------------|
E|---------------------------------------------------------------|


(0:27-0:47)
e|--------------|  e|--------------------|  e|------------------------|
B|---------0----|  B|-1h3p1p0---0-1-0-1--|  B|---0-1h3-5---0h1p0---1--|
G|-----1h2------|  G|---------2----------|  G|-2---------2------------|
D|-2h3----------|  D|--------------------|  D|-------------------2----|
A|--------------|  A|--------------------|  A|------------------------|
E|--------------|  E|--------------------|  E|------------------------|

e|----------------------|
B|---0-1h3-5-5---0h1p0--|
G|-2-----------2--------|
D|----------------------|
A|----------------------|
E|----------------------|


(0:47-1:01)
e|--------------------------|--------------------------|
B|-0h1----------------------|-0h1----------------------|
G|-----2h4-1h2---------1h2--|-----2h4-1h2---------1h2--|
D|-------------3h6-2h3------|-------------3h6-2h3------|
A|--------------------------|--------------------------|
E|--------------------------|--------------------------|

e|-----------------------------0h1---0-1-3-0--|
B|-0h1-----1h3-1h3p1p0---0-1-3-----3----------|
G|-----2h4-------------2----------------------|
D|--------------------------------------------|
A|--------------------------------------------|
E|--------------------------------------------|

e|----------------------------------|----------------------------------|
B|---------0h1----------------------|---------0h1----------------------|
G|-----1h2-----2h4-1h2---------1h2--|-----1h2-----2h4-1h2---------1h2--|
D|-2h3-----------------3h6-2h3------|-2h3-----------------3h6-2h3------|
A|----------------------------------|----------------------------------|
E|----------------------------------|----------------------------------|

e|-----------------------------0h1---0-1-3-0--|
B|-0h1-----1h3-1h3p1p0---0-1-3-----3----------|
G|-----2h4-------------2----------------------|
D|--------------------------------------------|
A|--------------------------------------------|
E|--------------------------------------------|

Strum E chord. 

(1:01-1:27)
e|-0h1------------------------|-0h1------------------------|
B|-----3h5-1h3-0h1-----0-1-3--|-----3h5-1h3-0h1-----0-1-3--|
G|-----------------2-0--------|-----------------2-0--------|
D|----------------------------|----------------------------|
A|----------------------------|----------------------------|
E|----------------------------|----------------------------|

e|-0h1p0---0-3-3p1h3p0---0-1-0h1p0---0----------|
B|-------3-------------3-----------3---1h3-0----|
G|----------------------------------------------|
D|-------------------------------------------2--|
A|----------------------------------------------|
E|----------------------------------------------|

e|-0h1------------------------|-0h1------------------------|
B|-----3h5-1h3-0h1-----0-1-3--|-----3h5-1h3-0h1-----0-1-3--|
G|-----------------2-0--------|-----------------2-0--------|
D|----------------------------|----------------------------|
A|----------------------------|----------------------------|
E|----------------------------|----------------------------|

e|-0h1p0---0-3-3p1h3p0---0-1-0h1p0---0----------|
B|-------3-------------3-----------3---1h3-0----|
G|----------------------------------------------|
D|-------------------------------------------2--|
A|----------------------------------------------|
E|----------------------------------------------|

e|----------------------|------------------------------|
B|-0h1p0---0------------|---------0h1p0---0------------|
G|-------2---1h2p2---1--|-----1h2-------2---1h2p1---1--|
D|-----------------3----|--2h3--------------------3----|
A|----------------------|------------------------------|
E|----------------------|------------------------------|

e|---------------------------------------0h1p0---0-1-3-1h3p1p0--|
B|---------0h1p0---0-1-3-1h3p1p0---0-1-3-------3----------------|
G|-----1h2-------2---------------2------------------------------|
D|-2h3----------------------------------------------------------|
A|--------------------------------------------------------------|
E|--------------------------------------------------------------|

e|-----------------------------------------------------------|
B|---------0h1p0---0--------------------0h1p0---0------------|
G|-----1h2-------2---1h2p2---1------1h2-------2---1h2p1---1--|
D|-2h3---------------------3----2h3---------------------3----|
A|-----------------------------------------------------------|
E|-----------------------------------------------------------|

e|---------------------------------------0h1p0---0-1-3-1h3p1p0--|
B|---------0h1p0---0-1-3-1h3p1p0---0-1-3-------3----------------|
G|-----1h2-------2---------------2------------------------------|
D|-2h3----------------------------------------------------------|
A|--------------------------------------------------------------|
E|--------------------------------------------------------------|

Strum E chord.

(1:27-1:40)
e|-0h1------------------------|-0h1------------------------|
B|-----3h5-1h3-0h1-----0-1-3--|-----3h5-1h3-0h1-----0-1-3--|
G|-----------------2-0--------|-----------------2-0--------|
D|----------------------------|----------------------------|
A|----------------------------|----------------------------|
E|----------------------------|----------------------------|

e|-0h1p0---0-3-3p1h3p0---0-1-0h1p0---0----------|
B|-------3-------------3-----------3---1h3-0----|
G|----------------------------------------------|
D|-------------------------------------------2--|
A|----------------------------------------------|
E|----------------------------------------------|

e|-0h1------------------------|-0h1------------------------|
B|-----3h5-1h3-0h1-----0-1-3--|-----3h5-1h3-0h1-----0-1-3--|
G|-----------------2-0--------|-----------------2-0--------|
D|----------------------------|----------------------------|
A|----------------------------|----------------------------|
E|----------------------------|----------------------------|

e|-0h1p0---0-3-3p1h3p0---0-1-0h1p0---0----------|
B|-------3-------------3-----------3---1h3-0----|
G|----------------------------------------------|
D|-------------------------------------------2--|
A|----------------------------------------------|
E|----------------------------------------------|


(1:45-2:07)
e|--------------------| e|--------------------| e|------------------------| 
B|-1h3p1p0---0-1-0-0--| B|-1h3p1p0---0-1-0-1--| B|---0-1h3-5---0h1p0---1--| 
G|---------2----------| G|---------2----------| G|-2---------2------------| 
D|--------------------| D|--------------------| D|-------------------2----| 
A|--------------------| A|--------------------| A|------------------------| 
E|--------------------| E|--------------------| E|------------------------| 

e|----------------------|
B|---0-1h3-5-5---0h1p0--|
G|-2-----------2--------|
D|----------------------|
A|----------------------|
E|----------------------|

Pura vida Calilo!!, tuanis mae.
Добавлено: 18.04.2012
Другие материалы по этой песне:

Страница создана 15.03.2012
http://primanota.ru/mike-oldfield/serpent-dream-chords.htm
Привет, Гость.
Предлагаем пройти революционный курс по гитаре.
Подарок от PrimaNota.Ru, забирай!