PrimaNota.ru - самый крупный в мире бесплатный архив песенных текстов, аккордов, табулатур и нот


Mike Oldfield - Minutes - таба, бас-таба, видео

Регистрация Запомнить меня
Войти через:  Facebook Google Twitter Vk Yandex Mail.ru

Mike Oldfield - Minutes - таба, бас-таба, видео

Печатать
Просмотров: 186
Новый альбом группы 'Черный Кузнец' по культовому сериалу 'Сверхъестественное'!
Авторы музыки: Mike Oldfield
Авторы текста: Mike Oldfield
-----------------------------------------------------------------------------
                                          Artist - Mike Oldfield
                                         ************************
                                             Song - Minutes 
                                            ****************
                                        Album - Man On The Rocks 
                                       **************************
                                          Tabbed By - Ayreon77
                                         **********************
-----------------------------------------------------------------------------
Tuning:Standard

INTRO
******
G D

-----------------------------------------------------
This distorted sounding guitar is played through out all the song.
  play it as a constant strumming,in the background
         just listen to the song to play it.

  G           D           C           Em
e|-----------|-----------|-----------|-----------|
B|-----------|-----------|-----------|-----------|
G|-----------|-----------|-----------|-----------|Ect
D|-----------|-7-7-7-7-7-|-5-5-5-5-5-|-----------|
A|-5-5-5-5-5-|-5-5-5-5-5-|-3-3-3-3-3-|-2-2-2-2-2-|
E|-3-3-3-3-3-|-----------|-----------|-0-0-0-0-0-|

VERSE 1
********
G                 D
Minutes seem like hours 
    C                    D
And hours they seem like days
         G                 D
When the ones you want are missing
            C                   D
And they've gone their separate ways
C            G            Em             D
Walking in a sunny garden empty like the moon
    C                     G
And birds that once could fly so high
    Em               D
Now sing a different tune


-----------------------------------------------------
VERSE 2
********
G              D
Walking in the park
               C                D
The leaves are turning now it's fall
    G                 D
The time has come for leaving 
         C                 D
In their eyes that says it all
C               G
Pictures on the mantle
         Em              D
Tell the tales of better times
C              G              Em
Moments from a long long time ago
                 D
When things were fine


-----------------------------------------------------
CHORUS
*******
D        G
One fine day
         C          D
When the wild birds return
      D             Em
We'll look back and say
       C                   D
What a lesson in life I've learned


-----------------------------------------------------
VERSE 3
********
   G                  D
So light a broad wick candle
       C              D
In the window make it bright
    G                 D
You need to find your way home 
       C                D
In the dark and deepest nights
    C                  G
And if you're lost and homeless
        Em          D
In some lonely city zone
     C                G
Just follow back that winding road
     Em                D
That leads you back on home


-----------------------------------------------------
CHORUS
*******
-----------------------------------------------------
02:20
SOLO - G D C D X2
*****  C G Em D X2
       D G C D D Em C D D = Ohhhhhhhh
e|----------s---------------s--------|
B|---8-10-10\12-----------10\12-8-10-|
G|-7------------7---9---7------------|
D|-----------------------------------|
A|-----------------------------------|
E|-----------------------------------|


e|--------------s-----------s-----------s--------|
B|-------8-10-10\12-----10-10\12------10\12-8-10-|
G|-7-7-7------------7------------9--7------------|
D|-----------------------------------------------|
A|-----------------------------------------------|
E|-----------------------------------------------|

             s                  s  s
e|----8-10-10\12-10---------|-10\12/10----------br-|
B|-10---------------12-10-8-|----------12-10-8-10--|
G|--------------------------|----------------------|
D|--------------------------|----------------------|
A|--------------------------|----------------------|
E|--------------------------|----------------------|

                    H    s
e|------------8-8-10-12-8\10---------|-10-10-10--b--------|
B|-----10-10-----------------12-10-8-|----------10-10-8---|
G|-7-7-------------------------------|------------------7-|
D|-----------------------------------|--------------------|
A|-----------------------------------|--------------------|
E|-----------------------------------|--------------------|

  Ohhhhhhh
  02:52     s                                                           
e|-------8-8\10---------------8---s------|------------b-r--|
B|-10-12------------8-8-8-8-8---10\12-10-|-----10-12-12--8-|
G|--------------7-7----------------------|-7-7-------------|
D|---------------------------------------|-----------------|
A|---------------------------------------|-----------------|
E|---------------------------------------|-----------------|

              H   H p
e|-----------7-8-7-8-7----|-----10-|
B|-------8-8-----------10-|--------|
G|-9-7-9------------------|-7-7----|
D|------------------------|--------|
A|------------------------|--------|
E|------------------------|--------|


-----------------------------------------------------
VERSE 4
********
G                 D
Minutes seem like hours
        C                    D
And the hours they seem like days
         G                 D
When the ones you want are missing
            C                   D
And they've gone their separate ways
C            G            Em             D
Walking in a sunny garden empty like the moon
    C                     G
And birds that once could fly so high
    Em                D
Now sings a different tune


-----------------------------------------------------
CHORUS X3
*******
play these bits of solos through the last 3 choruses.
  03:44
    s              03:54             04:00           s         s
e|-8\10-8---------|--s------h-------|-10-8----8-10-10\12-----10\12-10----|
B|--------12-10-8-|-8\10-8-7-8-10---|------12------------8-8----------10-|
G|----------------|---------------7-|------------------------------------|
D|----------------|-----------------|------------------------------------|
A|----------------|-----------------|------------------------------------|
E|----------------|-----------------|------------------------------------|

04:10                04:17    s           04:21
e|----s------h-p----|-16-10-10\12-7-8-10-|------br--------s------h-------|
B|---8\10-8-7-8-7---|--------------------|-10--12-8------8\10-8-7-8-10---|
G|-9--------------7-|--------------------|----------11-9---------------7-|
D|------------------|--------------------|-------------------------------|
A|------------------|--------------------|-------------------------------|
E|------------------|--------------------|-------------------------------|


-----------------------------------------------------
OUTRO
******
G D G
 
D               G 
When wild birds return

04:30
e|-----------------|-----------------|-----------------|---|
B|-----------------|-----------------|-----------------|---|
G|-----2-4-2-2-----|-----2-4-2-2-----|-----2-4-2-2-----|---|
D|-5-5---------5-4-|-5-5---------5-4-|-5-5---------5-4-|-5-|
A|-----------------|-----------------|-----------------|---|
E|-----------------|-----------------|-----------------|---|

D



Cool Tune.

ENJOY...............
Добавлено: 14.03.2014
Другие материалы по этой песне:
  • Аккорды и текст

Страница создана 14.03.2014
http://primanota.ru/mike-oldfield/minutes-chords.htm
Привет, Гость.
Предлагаем пройти революционный курс по гитаре.
Подарок от PrimaNota.Ru, забирай!