PrimaNota.ru - самый крупный в мире бесплатный архив песенных текстов, аккордов, табулатур и нот


Mike Oldfield - Inner Child - таба, видео

Регистрация Запомнить меня
Войти через:  Facebook Google Twitter Vk Yandex Mail.ru

Mike Oldfield - Inner Child - таба, видео

Печатать
Просмотров: 154


Hey again, Enjoy the tab.. 




Am      E           Am  Dm      Esus4 E  F    E
e||----8-5-4-5-7---7-4-5-7-5-----------5-7---------7----|
B||--5-----------5-----------5-6-5-6-8-----5-6---6---5--|
G||--------------------------------------------7--------|
D||-----------------------------------------------------|
A||-----------------------------------------------------|
E||-----------------------------------------------------|


Part Two

            Asus4 A Dm      A     Dm    A      Dm     A    Esus4
e||----5-7--10-9--5-8-7-5---7-5-------------------------|
B||--5--------------------6-----5-8-6-5-------5-8-6-8-5-|
G||-------------------------------------7-6-7-----------|
D||-----------------------------------------------------|
A||-----------------------------------------------------|
E||-----------------------------------------------------|

           Asus4 A Dm      A     Dm    A       Dm     A    Esus4
e|----5-7--10-9--5-8-7-5---7-5--------------------------||
B|--5--------------------6-----5-8-6-5-------5-8-6-8-10-||
G|-------------------------------------7-6-7------------||
D|------------------------------------------------------||
A|------------------------------------------------------||
E|------------------------------------------------------||


Coda
No chords
e|--------------------------------------------7-10-9----|
B|--------6-8-10-8-6-8------------6-8-10-8-10-----------|
G|--6-7-9--------------9----6-7-9-----------------------|
D|------------------------------------------------------|
A|------------------------------------------------------|
E|------------------------------------------------------|

e|---------------------------------------------------------|-5-|
B|--------6-8-10-8-6-8------------6-8-10-8-10-12-10-12-10--|-5-|
G|--6-7-9--------------9----6-7-9--------------------------|-6-|
D|---------------------------------------------------------|-7-|
A|---------------------------------------------------------|-7-|
E|---------------------------------------------------------|-5-|


If you listen to the woman singin at the start, thats how it goes at that speed when it kicks in ;) 

Enjoy
                                     GoheX
Добавлено: 11.05.2012
Другие материалы по этой песне:
  • Аккорды и текст

Страница создана 11.05.2012
http://primanota.ru/mike-oldfield/inner-child-chords.htm
Привет, Гость.
Предлагаем пройти революционный курс по гитаре.
Подарок от PrimaNota.Ru, забирай!