PrimaNota.ru - самый крупный в мире бесплатный архив песенных текстов, аккордов, табулатур и нот


Mike Oldfield - Blue saloon v2 - таба, видео

Регистрация Запомнить меня
Войти через:  Facebook Google Twitter Vk Yandex Mail.ru

Mike Oldfield - Blue saloon v2 - таба, видео

Печатать
Просмотров: 82


-------------------------------------------------------------------------------
			     Blue Saloon - Mike Oldfield
-------------------------------------------------------------------------------
Tabbed by: Michel Aubry, 13 march 2008 in Montreal
Email: Kheang@sympatico.ca

Tuning: standard
   0:10 min       0:19 min
e|-------------|------------12--10(b)---------------------12--10(b)----------|
B|---12--------|--------1012--12-----121210--12-------1012--12-----121210--12-
G|-11--1111()--|--12(b)--------------------12--779-----------------------12--|
D|-------------|---------------------/12-------------------------------------|
A|-------------|-------------------------------------------------------------|
E|-------------|-------------------------------------------------------------|

   0:39 min
e|-------12----12(b)----11----------12--15151415------11---------------------|
B|------13-1513--12(b)12-12-12----12-13-------12-1213------------------------|
G|-/1214-------------------14-14-12------------14----------------------------|
D|---------------------------------------------------------------------------|
A|---------------------------------------------------------------------------|
E|---------------------------------------------------------------------------|

   1:08 min
e|--------17--151412-1214(15)1412----------17--151412-1214(15)1412-----------|
B|-12/13/12-12-----15------------1512-----12-12------15-----------1513-------|
G|------------------------------------1214-----------------------------------|
D|---------------------------------------------------------------------------|
A|---------------------------------------------------------------------------|
E|---------------------------------------------------------------------------|

e|--------17--151412-1214(15)1412----------17--151412-1214-1917-1514---------|
B|------12-12------15-----------1513-----12-12------15---------------|
G|-12/14-----------------------------1214------------------------------------|
D|---------------------------------------------------------------------------|
A|---------------------------------------------------------------------------|
E|---------------------------------------------------------------------------|

e|-----------------|
B|-1415()15()16()--|
G|-----------------|
D|-----------------|
A|-----------------|
E|-----------------|

  the end at 2:08
e|---------1616-1616-21()21()17-1414p12-1214-121414()--12141616-1616-|
B|------------------------------------14-------------------------------------|
G|-79------------------------------------------------------------------------|
D|---------------------------------------------------------------------------|
A|---------------------------------------------------------------------------|
E|---------------------------------------------------------------------------|

e|-21()21()17-1414p12-1214-1414-141214-12------------------------------------|
B|------------------14------------------1214---------------------12----------|
G|----------------------------------------------1311-------------------------|
D|---------------------------------------------------1314-1113---------------|
A|---------------------------------------------------------------------------|
E|---------------------------------------------------------------------------|

| () bend
| /  slide up
|   slide down
| h  hammer-on
| p  pull-off
| ~  vibrato
| +  harmonic
| x  Mute note
===============================================================================

Добавлено: 16.11.2013
Другие материалы по этой песне:
  • Аккорды и текст

Страница создана 16.11.2013
http://primanota.ru/mike-oldfield/blue-saloon-v2-chords.htm
Привет, Гость.
Предлагаем пройти революционный курс по гитаре.
Подарок от PrimaNota.Ru, забирай!