PrimaNota.ru - самый крупный в мире бесплатный архив песенных текстов, аккордов, табулатур и нот


Mike Oldfield - Blue Saloon - бас-таба, видео

Регистрация Запомнить меня
Войти через:  Facebook Google Twitter Vk Yandex Mail.ru

Mike Oldfield - Blue Saloon - бас-таба, видео

Печатать
Просмотров: 157
Уроки эстрадного вокала в Санкт-Петербурге
Авторы музыки: Mike Oldfield

Tabbed by: dshodaw
Tuning: Standard

Not many people may remember Mike Oldfield, but Blue Saloon is a great song for people just starting to play
bass. It's got few notes to play, so less to worry about, although the timing is a little unorthodox.

Intro:
G:------------|------------|------------|------------|
D:------------|------------|------------|------------|
A:------------|------------|------------|------------|
E:--5-55-55-55|-55-55-55-55|-55-55-55-55|-55-55-55-55|

G:------------|------------|------------|------------|
D:------------|------------|------------|------------|
A:------------|------------|------------|------------|
E:-50-00-00-00|-00-00-00-00|-00-00-00-00|-00-00-00-00|

Verse 1:
G:------------|------------|------------|------------|
D:------------|------------|------------|------------|
A:------------|------------|--2-22-22-22|-2----------|
E:-00-00-00-00|-00-00-00-00|-0----------|--0-00-00-00|

G:------------|------------|------------|------------|
D:------------|------------|------------|------------|
A:--------2-22|-2----------|--2-22-22-22|-2----------|
E:-00-00-0----|--0-00-00-00|-0----------|--0-00-00-00|

Chorus:
G:------------|------------|------------|------------|
D:------------|------------|------------|------------|
A:------------|------------|--2-22-22-22|-2----------|
E:-05-55-55-55|-50-00-00-00|-0----------|--0-00-00-00|

G:------------|------------|------------|------------|
D:------------|------------|------------|------------|
A:------------|------------|------------|--2-22-22-22|
E:-05-55-55-55|-50-00-00-00|-05-55-55-55|-5----------|

Verse 2:

G:------------|------------|------------|------------|
D:------------|------------|------------|------------|
A:--------2-22|-2----------|--2-22-22-22|-2----------|
E:-20-00-0----|--0-00-00-00|-0----------|--0-00-00-00|

G:------------|------------|------------|------------|
D:------------|------------|------------|------------|
A:--------2-22|-2----------|--2-22-22-22|-2----------|
E:-00-00-0----|--0-00-00-00|-0----------|--0-00-00-00|

Chorus 2:
G:------------|------------|------------|------------|
D:------------|------------|------------|------------|
A:--2-22-22-22|-2----------|--2-22-22-22|-2----------|
E:-0----------|--0-00-00-00|-0----------|--5-55-55-55|

G:------------|------------|------------|------------|
D:------------|------------|------------|------------|
A:--2-22-22-22|-23-33-33-33|-3----------|--2-22-22-22|
E:-5----------|------------|--5-55-55-55|-5----------|

Verse 3:
G:------------|------------|------------|------------|
D:------------|------------|------------|------------|
A:--------2-22|-2----------|--2-22-22-22|-2----------|
E:-20-00-0----|--0-00-00-00|-0----------|--0-00-00-00|

G:------------|------------|------------|------------|
D:------------|------------|------------|------------|
A:--------2-22|-2----------|--2-22-22-22|-2----------|
E:-00-00-0----|--0-00-00-00|-0----------|--0-00-00-00|

Chorus 3:
G:------------|------------|------------|------------|
D:------------|------------|------------|------------|
A:--2-22-22-22|-2----------|--2-22-22-22|-2----------|
E:-0----------|--0-00-00-00|-0----------|--5-55-55-55|

G:------------|------------|------------|------------|
D:------------|------------|------------|------------|
A:--2-22-22-22|-23-33-33-33|-3----------|--2-22-22-22|
E:-5----------|------------|--5-55-55-55|-5----------|

G:-------------|
D:-------------|
A:--2(let ring)|
E:-5-----------|

After this point, the bass becomes inaudible in the original song, so either play variations of the
above, or improvise. There are two more sections of this song, but they sound very different from the
main part, and don't appear to have any bass. If you are a beginner, that's a good place to learn to
improv.

Enjoy and Rock On \,,/
dshodaw
Добавлено: 20.06.2015
Другие материалы по этой песне:
  • Аккорды и текст

Страница создана 20.06.2015
http://primanota.ru/mike-oldfield/blue-saloon-chords.htm
Привет, Гость.
Предлагаем пройти революционный курс по гитаре.
Подарок от PrimaNota.Ru, забирай!