PrimaNota.ru - самый крупный в мире бесплатный архив песенных текстов, аккордов, табулатур и нот


Mike Mains And The Branches - Where Love Dies - таба, видео

Регистрация Запомнить меня
Войти через:  Facebook Google Twitter Vk Yandex Mail.ru

Mike Mains And The Branches - Where Love Dies - таба, видео

Печатать
Просмотров: 84
-------------------------------------------------------------------------------
                             Where Love Dies - Mike Mains & the Branches
-------------------------------------------------------------------------------
Tabbed by: heymcfly1234

Tuning: E A D G B e (standard)

Intro:
e|-----------------------------------------------------------------------------------|
B|------4----4-----4----4----4----4----4----4----------------------------------------|
G|------4----4-----4----4----4----4----4----4----------------------------------------|
D|-----------------------------------------------------------------------------------|
A|-----------------------------------------------------------------------------------|
E|---4-----4-----2----2----0----0----0----0------------------------------------------|

e|-----------------------------------------------------------------------------------|
B|------4----4-----4----4----4----4----4----4---4---4--------------------------------|
G|------4----4-----4----4----4----4----4----4---4---4--------------------------------|
D|-----------------------------------------------------------------------------------|
A|-----------------------------------------------------------------------------------|
E|---4-----4-----2----2----0----0----0----0----0---0---------------------------------|

Verses
e|---------------------------------------------------------------------------|
B|------4----4-----4----4----4----4----4----4--------------------------------|
G|------4----4-----4----4----4----4----4----4--------------------------------| x4
D|---------------------------------------------------------------------------| (repeat the set of 4
A|---------------------------------------------------------------------------|  open E's again the
E|---4-----4-----2----2----0----0----0----0----------------------------------|  4th time)

Bridges:
e|---------------------------------------------------------------------------|
B|-----4----4----4-----4-----4-----4-----4-----4-----------------------------|
G|-----4----4----4-----4-----4-----4-----4-----4-----------------------------| x2
D|---------------------------------------------------------------------------| (repeat the set of G# on
A|---2-----2----4----4-------------------------------------------------------|  the E string again the
E|-------------------------4-----4-----4-----4-------------------------------|  2nd time)

Chorus's:
e|---------------------------------------------------------------------------|
B|-----4----4----4-----4-----4-----4-----4-----4-----------------------------|
G|-----4----4----4-----4-----4-----4-----4-----4-----------------------------| x3
D|---------------------------------------------------------------------------|
A|---2-----2-----------------------------------------------------------------|
E|-------------2-----2-----4-----4-----4-----4-------------------------------|

      "This is a place were love dies."
e|---------------------------------------------------------------------------|
B|--------------4------------4-----------------------------------------------|
G|--------------4------------4-----------------------------------------------|
D|---------------------------------------------------------------------------|
A|--------------2------------------------------------------------------------|
E|---------------------------2-----------------------------------------------|

Intro to second verse
e|---------------------------------------------------------------------------|
B|------4----4-----4----4----4----4----4----4--------------------------------|
G|------4----4-----4----4----4----4----4----4--------------------------------|
D|---------------------------------------------------------------------------|
A|---------------------------------------------------------------------------|
E|---4-----4-----2----2----0----0----0----0----------------------------------|

e|---------------------------------------------------------------------------|
B|------4----4-----4----4----4----4----4----4---4----------------------------|
G|------4----4-----4----4----4----4----4----4---4----------------------------|
D|---------------------------------------------------------------------------|
A|------------------------------2---------2--------2-------------------------|
E|---4-----4-----2----2----0---------0---------0-----------------------------|

Part between chorus and ending tag
e|---------------------------------------------------------------------------|
B|-----5---------4----------2------------------------------------------------|
G|-----4---------4----------4------------------------------------------------|
D|---------------------------------------------------------------------------|
A|---------------------------------------------------------------------------|
E|---4---------2----------0--------------------------------------------------|

     (also the ending tag)
e|------------------------|     e|--------------------------|
B|------4----4----4----4--|     B|----4----4----4----4------|
G|------4----4----4----4--|     G|----4----4----4----4------|
D|------------------------| x2  D|--------------------------| x2
A|----2----2----2----2----|     A|--------------------------|
E|------------------------|     E|--2----2----2----2--------|

e|------------------------|     e|-------------------------------------|
B|------4----4----4----4--|     B|----4---4---4---4---4---4---4---4----|
G|------4----4----4----4--|     G|----4---4---4---4---3---3---3---3----|
D|------------------------| x2  D|-------------------------------------|
A|------------------------|     A|-------------------------------------|
E|-----4----4----4----4---|     E|--2---2---2---2---2---2---2---2------|

Ending - "This isn't a place where good girls hide. This is a place where love dies."
e|-------------------------------------------------------------------------------------------|
B|----------------------4------------4---------4----------------4-----------4----4-----------|
G|----------------------4------------4---------4----------------4-----------4----4-----------|
D|-------------------------------------------------------------------------------------------|
A|----------------------2---------------------------------------2----------------------------|
E|-----------------------------------2---------4----------------------------2----4-----------|

Thanks for checking it out! Let me know if you have any suggestions!
Добавлено: 10.11.2015
Вам также может быть интересно:
Другие материалы по этой песне:
  • Аккорды и текст

Страница создана 10.11.2015
http://primanota.ru/mike-mains-and-the-branches/where-love-dies-chords.htm
Привет, Гость.
Предлагаем пройти революционный курс по гитаре.
Подарок от PrimaNota.Ru, забирай!