PrimaNota.ru - самый крупный в мире бесплатный архив песенных текстов, аккордов, табулатур и нот


Mike Mains And The Branches - Slow Down - таба, видео

Регистрация Запомнить меня
Войти через:  Facebook Google Twitter Vk Yandex Mail.ru

Mike Mains And The Branches - Slow Down - таба, видео

Печатать
Просмотров: 174
Уроки эстрадного вокала в Санкт-Петербурге
Intro
E|----------------------------------------------------------------------------------------------------------|
B|-----4-----4----4-----4------4------4------4------4-----6-----6-----4-----4-----8--------6----------------|
G|-----3-----3----0-----0------3------3------0------0-----7-----7-----5-----5-------8------7----------------|
D|----------------------------------------------------------8-----8-----6-----6-------------8---8-----------|
A|----------------------------6------6------6------6--------------------------------6-----------8-----------|
E|--4-----4------4----4-------------------------------------------------------------------------------------|


Verse 1
E|----------------------------------------------------------------------------------------------------------|
B|-----4-----4----4-----4------4------4------4------4-----6-----6-----4-----4-----8--------6----------------|
G|-----3-----3----0-----0------3------3------0------0-----7-----7-----5-----5-------8------7----------------|
D|----------------------------------------------------------8-----8-----6-----6-------------8---8-----------|
A|----------------------------6------6------6------6--------------------------------6-----------8-----------|
E|--4-----4------4----4-------------------------------------------------------------------------------------|

E|----------------------------------------------------------------------------------------------------------|
B|-----4-----4----4-----4------4------4------4------4----8----6----4----------------------------------------|
G|-----3-----3----0-----0------3------3------0------0----8----7----5----------------------------------------|
D|------------------------------------------------------10----8----6----------------------------------------|
A|----------------------------6------6------6------6----10----8----6----------------------------------------|
E|--4-----4------4----4-------------------------------------------------------------------------------------|

E|----------------------------------------------------------------------------------------------------------|
B|----6-----6-----6-----6-----6----6------6----6------6----6----6----------8----6----4----------------------|
G|----7-----7-----7-----7-----7----7------7----7------7----7----7----------8----7----5----------------------|
D|--------8-----------8----------8------------8------------8---------8----10----8----6----------------------|
A|--8-----------8-----------8-----------8-----------8---------8-----------10----8----6----------------------|
E|----------------------------------------------------------------------------------------------------------|


Chorus (2x)
E|----------------------------------------------------------------------------------------------------------|
B|-----4-----4-----4-----4------3------3------3------3-----4-----4-----4-----4-----6------6------6-----6----|
G|-----3-----3-----3-----3------3------3------3------3-----5-----5-----5-----5-----7------7------7-----7----|
D|--------5------------5-------------5--------------5------------6----------6-------------8--------------8--|
A|--6------------6------------5-------------5-------------6-------------6-----------8-------------8---------|
E|----------------------------------------------------------------------------------------------------------|

E|----------------------------------------------------------------------------------------------------------|
B|-----4-----4----4-----4------4------4------4------4-----6-----6-----4-----4-----7--------6----------------|
G|-----3-----3----0-----0------3------3------0------0-----7-----7-----5-----5-------7------7----------------|
D|----------------------------------------------------------8-----8-----6-----6-------------7---8-----------|
A|----------------------------6------6------6------6--------------------------------6-----------8-----------|
E|--4-----4------4----4-------------------------------------------------------------------------------------|


Verse 2
E|-------------------------------------------------------------------------------------------------------|
B|-----4-----4----4-----4------4------4------4------4-----6-----6-----4-----4-----7----------6-----------|
G|--3-----3----0-----0------3------3------0------0-----7-----7-----5-----5-------7----------7------------|
D|----------------------------------------------------------8-----8-----6-----6-------------7----------8-|
A|----------------------------6------6------6------6--------------------------------6-----------8--------|
E|--4-----4------4----4----------------------------------------------------------------------------------|

E|----------------------------------------------------------------------------------------------------------|
B|-----4-----4----4-----4------4------4------4------4-----6-----6-----4-----4----8----6---------------------|
G|-----3-----3----0-----0------3------3------0------0-----7-----7-----5-----5----8----7---------------------|
D|----------------------------------------------------------8-----8-----6-----6------10----8----------------|
A|----------------------------6------6------6------6---------------------------------10----8----------------|
E|--4-----4------4----4-------------------------------------------------------------------------------------|

E|----------------------------------------------------------------------------------------------------------|
B|----6-----6-----6-----6-----6----6------6----6------6----6----6----------8----6----4----------------------|
G|----7-----7-----7-----7-----7----7------7----7------7----7----7----------8----7----5----------------------|
D|--------8-----------8----------8------------8------------8---------8----10----8----6----------------------|
A|--8-----------8-----------8-----------8-----------8---------8-----------10----8----6----------------------|
E|----------------------------------------------------------------------------------------------------------|


Chorus (2x)
E|----------------------------------------------------------------------------------------------------------|
B|-----4-----4-----4-----4------3------3------3------3-----4-----4-----4-----4-----6------6------6-----6----|
G|-----3-----3-----3-----3------3------3------3------3-----5-----5-----5-----5-----7------7------7-----7----|
D|--------5------------5-------------5--------------5------------6----------6-------------8--------------8--|
A|--6------------6------------5-------------5-------------6-------------6-----------8-------------8---------|
E|----------------------------------------------------------------------------------------------------------|


Bridge
E|--------------------------------------------------|
B|-----4-----4------4------4----4----4----4--4------|
G|---0h3----3-----0h3----3----0h3----3----5--3------|
D|--------------------------------------------------|
A|--------------------------------------------------|
E|--4-------4----4------4---4----4------------------|

E|----------------------------------------------------|
B|-----4-----4----4------4----4-----4-----------------|
G|----0h3---3----0h3----3----0h3---3------------------|
D|----------------------------------------------------|
A|----------------------------------------------------|
E|---4-----4----4-----4----4-----4--------------------|

E|------------------------------------------------------------------------------------------------------------|
B|--8---------4----8----8---------4----8--------8----------6---------4------8------8--------6--------4------8-|
G|--8---------5----8----8---------5----8----------8----------7---------5----8--------8--------7--------5----8-|
D|--10--------6----8----10--------6----8------------10--------8----------6--8----------10-------8--------6--8-|
A|--10--------6----6----10--------6----6----10----------8--------6----------6---10--------8-------6---------6-|
E|------------------------------------------------------------------------------------------------------------|

E|----------------------------------------------------------------------------------------------------------|
B|----6-----6-----6-----6-----6----6------6----6------6----6----6----------8----6----4----------------------|
G|----7-----7-----7-----7-----7----7------7----7------7----7----7----------8----7----5----------------------|
D|--------8-----------8----------8------------8------------8---------8----10----8----6----------------------|
A|--8-----------8-----------8-----------8-----------8---------8-----------10----8----6----------------------|
E|----------------------------------------------------------------------------------------------------------|


Chorus (2x)
E|----------------------------------------------------------------------------------------------------------|
B|-----4-----4-----4-----4------3------3------3------3-----4-----4-----4-----4-----6------6------6-----6----|
G|-----3-----3-----3-----3------3------3------3------3-----5-----5-----5-----5-----7------7------7-----7----|
D|--------5------------5-------------5--------------5------------6----------6-------------8--------------8--|
A|--6------------6------------5-------------5-------------6-------------6-----------8-------------8---------|
E|----------------------------------------------------------------------------------------------------------|

E|----------------------------------------------------------------------------------------------------------|
B|-------6--4-----------------------------------------------------------------------------------------------|
G|-------7--3-----------------------------------------------------------------------------------------------|
D|-------8--5-----------------------------------------------------------------------------------------------|
A|-------8--6-----------------------------------------------------------------------------------------------|
E|----------------------------------------------------------------------------------------------------------|
Добавлено: 10.11.2015
Другие материалы по этой песне:
  • Аккорды и текст

Страница создана 10.11.2015
http://primanota.ru/mike-mains-and-the-branches/slow-down-chords.htm
Привет, Гость.
Предлагаем пройти революционный курс по гитаре.
Подарок от PrimaNota.Ru, забирай!