PrimaNota.ru - самый крупный в мире бесплатный архив песенных текстов, аккордов, табулатур и нот


Mike Krol - Neighborhood Watch - таба, видео

Регистрация Запомнить меня
Войти через:  Facebook Google Twitter Vk Yandex Mail.ru

Mike Krol - Neighborhood Watch - таба, видео

Печатать
Просмотров: 57
-------------------------------------------------------------------------------
                             Neighborhood Watch - Mike Krol
-------------------------------------------------------------------------------
Tabbed by: Noah
E-mail: noah.harpham@yahoo.com

Tuning: Standard

Intro/Verse - It looks so boring on paper. Chord voicings are more nuanced on record (hint: guitar ditty 
informs the voicings and variations) but this is the quick and dirty.

e|------------|
B|------------|
G|-----8---9--|
D|-9---8---9--|  You better watch your back, 'cause I'm comin' for you...
A|-9---6---7--|
E|-7----------|


Lead guitar ditty

e|------------------------------------------|
B|------------------------------------------|
G|---9-8---------9-8---9-8-------6-8--9-8---|
D|-------9-----------9-----9-8--------------|
A|------------------------------------------|
E|------------------------------------------|


pre-whatever

e|--------------------|
B|--------------------|
G|------------8---9---|
D|----9---6---8---9---|
A|----9---6---6---7---|
E|----7---4-----------|


Verse 1

e|------------| Why'd you steal my bike man? I used to ride it every day. Just to prove that you can.
B|------------| Why do people think that way?
G|-----8---9--| 
D|-9---8---9--| If I see you want it, I'm gonna take you to the ground and make you say my name.
A|-9---6---7--| Don't have a badge, but I have a brain.
E|-7----------|


pre-whatever

e|--------------------|
B|--------------------|
G|------------8---9---|
D|----9---6---8---9---|
A|----9---6---6---7---|
E|----7---4-----------|

Verse 2 (add guitar ditty over the top of second half of verse)

e|------------| Now I've got a new plan to make sure that you pay
B|------------| And when we meet again...
G|-----8---9--| 
D|-9---8---9--| You can go, you can go and try to hide, but I have eyes
A|-9---6---7--| You can run, you can run yeah I don't mind... CAUSE I'VE GOT YOU IN MY SIGHT!
E|-7----------|

pre-whatever

e|--------------------|
B|--------------------| Now you've been warned!
G|------------8---9---| Now you've been warned!
D|----9---6---8---9---|
A|----9---6---6---7---|
E|----7---4-----------|

e|---------|
B|---------| 
G|----6--9-| They're not fooling around!
D|----6--9-| There's a neighborhood watch going down!
A|----4--7-|
E|---------|

e|----------------------|
B|----------------------| 
G|----------------------| X4 and then end the song on the down beat of 1
D|----9---6---4---2-----|
A|----9---6---4---2-----|
E|----7---4---2---0-----|



************************************

| /   slide up
| \   slide down
| h   hammer-on
| p   pull-off
| ~   vibrato
| +   harmonic
| x   Mute note
| b   Bend
| pb  Pre-bend
| br  Bend release
| pbr Pre-bend release
| brb Bend release bend

************************************
Добавлено: 24.06.2016
Другие материалы по этой песне:
  • Аккорды и текст

Страница создана 24.06.2016
http://primanota.ru/mike-krol/neighborhood-watch-chords.htm
Привет, Гость.
Предлагаем пройти революционный курс по гитаре.
Подарок от PrimaNota.Ru, забирай!