PrimaNota.ru - самый крупный в мире бесплатный архив песенных текстов, аккордов, табулатур и нот


Mike Gordon - Ether - таба, видео

Регистрация Запомнить меня
Войти через:  Facebook Google Twitter Vk Yandex Mail.ru

Mike Gordon - Ether - таба, видео

Печатать
Просмотров: 66
Stave 1:

E|-------------0-------------0-------------0-------------0-------------0-----------0-----------0--|
B|----------0-------------0-------------0-------------0-------------0-----------0-----------0-----|
G|------10------------10------------10------------10------------10-----------4-----------3--------|
D|--11------------11------------11------------11------------11------------5-----------4-----------|
A|------------------------------------------------------------------------------------------------|
E|------------------------------------------------------------------------------------------------|

All of the above notes will be rung out.

Stave 2:

E|-----------0-----------------------------------------------|
B|--------0--------------6-----6--------------6--6-----------|
G|-----1--------------8-----8-----8--------8--------8--------|
D|--2--------------8--------------------8--------------8-----|
A|--------------6--------------------6--------------------6--|
E|-----------------------------------------------------------|

This ^ part is from the previous theme. It would not fit on the line above.

                Play with this arpeggio during the second section.

Stave 3:

E|----------------------------------------------------|
B|-------------9-----------7-----------6-----------5--|
G|---------11-----------9-----------8-----------7-----|
D|-----11------------9-----------8-----------7--------|
A|--9-------------7-----------6-----------5-----------|
E|----------------------------------------------------|

Then it goes back to the intro, but the second time through, the second part is not 
played until theme 1 repeats 4 times.
Добавлено: 20.04.2016
Вам также может быть интересно:
Другие материалы по этой песне:
  • Аккорды и текст

Страница создана 20.04.2016
http://primanota.ru/mike-gordon/ether-chords.htm
Привет, Гость.
Предлагаем пройти революционный курс по гитаре.
Подарок от PrimaNota.Ru, забирай!