PrimaNota.ru - самый крупный в мире бесплатный архив песенных текстов, аккордов, табулатур и нот


Mike Gordon - 14 Years - таба, видео

Регистрация Запомнить меня
Войти через:  Facebook Google Twitter Vk Yandex Mail.ru

Mike Gordon - 14 Years - таба, видео

Печатать
Просмотров: 172
-------------------------------------------------------------------------------
                14 Years (Wolfenstein: New Order) - Mike Gordon
-------------------------------------------------------------------------------
Tabbed by: bibo
E-mail: bibaso@gmail.com

Tuning: Standard

e|--8h10p8-10--10/12--10/12--8h10p8-10--8h10p8-10----------------------------|
B|---------------------------------------------------------------------------|
G|---------------------------------------------------------------------------|
D|---------------------------------------------------------------------------|
A|---------------------------------------------------------------------------|
E|---------------------------------------------------------------------------|

e|--8h10p8-10--10/12--10/12--8h10p8-10--8h10p8-8-----------------------------|
B|---------------------------------------------------------------------------|
G|---------------------------------------------------------------------------|
D|---------------------------------------------------------------------------|
A|---------------------------------------------------------------------------|
E|---------------------------------------------------------------------------|

Play multiple times. Listen to the original track to get the palm mutes right

e|---------------------------------------------------------------------------|
B|---------------------------------------------------------------------------|
G|-x-x--5-5p3---3p2----------------------------------------------------------|
D|-x-x--------5-----3-5p3------x--5-5p3---5p3---3p0-3h5----------------------|
A|-x-x--------------------5---x---------5-----5------------------------------|
E|---------------------------x-----------------------------------------------|
                            sweep
e|---------------------------------------------------------------------------|
B|---------------------------------------------------------------------------|
G|---x--5-5p3---3p2----------------------------------------------------------|
D|--x---------5-----3-5p3-----x--5-5p3---5p3---3p0-3h5-----------------------|
A|-x---------------------5---x---------5-----5-------------------------------|
E|--------------------------x------------------------------------------------|
  sweep                    sweep


This follows after the silent part

e|---------------------------------------------------------------------------|
B|--3-----3-----3-----3-----------------3-----3-----1-----1-----1-----1------|
G|--3-----3-----3-----3-----3-----3-----3-----3-----2-----2-----2-----2------|
D|--5-----5-----5-----5-----5-----5-----5-----5-----3-----3-----3-----3------|
A|--5-5---5-5---5-5---5-5---6-6---6-6---5-5---5-5---3-3---3-3---3-3---3-3----|
E|--3-3---3-3---3-3---3-3---6-6---6-6---3-3---3-3---1-1---1-1---1-1---1-1----|
    Gmi                     Eb                      F


e|---------------------------------------------------------------------------|
B|--3-----3-----3-----3-----------------3-----3-----1-----1-----1-----1------|
G|--3-----3-----3-----3-----3-----3-----3-----3-----2-----2-----2-----2------|
D|--5-----5-----5-----5-----5-----5-----5-----5-----3-----3-----3-----3------|
A|--5-5---5-5---5-5---5-5---6-6---6-6---5-5---5-5---3-3---3-3---3-3---3-3----|
E|--3-3---3-3---3-3---3-3---6-6---6-6---3-3---3-3---1-1---1-1---1-1---1-1----|
    Gmi                     Eb                      F


************************************

| /   slide up
| \   slide down
| h   hammer-on
| p   pull-off
| ~   vibrato
| +   harmonic
| x   Mute note
| b   Bend
| pb  Pre-bend
| br  Bend release
| pbr Pre-bend release
| brb Bend release bend

************************************
Добавлено: 20.04.2016
Другие материалы по этой песне:
  • Аккорды и текст

Страница создана 20.04.2016
http://primanota.ru/mike-gordon/14-years-chords.htm
Привет, Гость.
Предлагаем пройти революционный курс по гитаре.
Подарок от PrimaNota.Ru, забирай!