PrimaNota.ru - самый крупный в мире бесплатный архив песенных текстов, аккордов, табулатур и нот


Mike Dignam - Taken Out Taken Down - аккорды и текст, видео

Регистрация Запомнить меня
Войти через:  Facebook Google Twitter Vk Yandex Mail.ru

Mike Dignam - Taken Out Taken Down - аккорды и текст, видео

Печатать
Просмотров: 104
Taken Out Taken Down
Mike Dignam
Official website:
http://www.mikedignam.com/

-------------------------------------------------------------------------------
                             TAKEN OUT TAKEN DOWN - Mike Dignam
-------------------------------------------------------------------------------
Tabbed by:lee jones
Email: leejones321@msn.com

Tuning: half step down (but if you dont know/ cant be bothered ill do a normal 
tuning version at the end)

Chords
Am  0-0-2-2-1-0
C   0-3-2-0-1-0
G   3-2-0-0-0-3
G*  3-5-5-4-3-3
G** 4-5-5-4-3-3

INTRO

Am,C,G (riff)

(Riff)
e|-----------------------------------------------------------------------------------|
B|--0--0h1p0-------------------------------------------------------------------------|
G|------------2p0--------------------------------------------------------------------|
D|-----------------------------------------------------------------------------------|
A|-----------------------------------------------------------------------------------|
E|-----------------------------------------------------------------------------------|


Am,C,G

VERSE

Riff         Am                  C
Im not gunna see when its coming
         G
Im outta luck with this woman
                    Am                      C
She's gunna take my heart an get rid of it
           G                      Riff
Ruling my mind with intelligence
                 Am              C
Why d'ya have to be so stubborn
                    G
And take all that i am and make me nothing
             Am                             C
I dont wanna hear the words from your mouth
           G                Riff
Just get out, get out.....

PRE-CHORUS
Am         C         G
I know you, know me so, why d'you wanna do this to me?
Am         C         G
I know you, know me sooooo

CHORUS
Am                   C
Taken out taken down, she'll take me prisoner
G
Im gunna shot and dodge, she'll pull the trigger now
Am                   C
Taken out taken down, she'll take me prisoner
G
Im a shoot and dodge, she'll pull the trigger now

PRE-CHORUS
Am         C         G
I know you, know me so, why d'you wanna do this to me?
Am         C         G
I know you, know me so ...

VERSE
             Am                      C
Im not gunna hear the engine running
              G
Im just gonna see the headlights coming
                    Am                      C
She's gonna make me feel some pain and more
              G
Get back everything i gave to her

PRE-CHORUS
Am         C         G
I know you, know me so, why d'you wanna do this to me?
Am         C         G
I know you, know me so...

CHORUS
Am                   C
Taken out taken down, she'll take me prisoner,
G
Im a shoot and dodge, she'll pull the trigger now
Am                   C
Taken out taken down, she'll take me prisoner,
G
Im a shoot and dodge, she'll pull the trigger now

BRIDGE
C                        Am
And i can see it in your eyes
      G
That you despise me
       C             Am
Theres nothing i can do
    G
Oh, i can't rewrite history
   C        Am     G
So put your weapon down,
     Am        G   G*,G*,G**,G** [G*= 3-5-5-4-3-3 & G**= 4-5-5-4-3-3]
And listen to me, (ohh nooo)

CHORUS
Am
Taken out taken down...she'll take me prisoner
Am
Im gonna shoot and dodge she'll pull the trigger now
Am
Taken out taken down...she'll take me prisoner
Am
Im gonna shoot and dodge she'll pull the trigger now

OUTTRO
Am                    C
Taken out taken down...she'll take me prisoner (i know you,you know me)
 G
Im gonna shoot and dodge she'll pull the trigger now
Am                    C
Taken out taken down...she'll take me prisoner
G
Im gonna shoot and dodge she'll pull the trigger now

Am                    C
Taken out taken down...she'll take me prisoner(i know you,you know me)
G
Im gonna shoot and dodge she'll pull the trigger now
Am                     C
Taken out taken down...she'll take me prisoner
G
Im gonna shoot and dodge she'll pull the trigger now

FINAL OUTTRO
Am                    C                       G  G*,G*,G**,G**,Am
Taken out taken down...she'll take me prisoner


NORMAL VERSION TUNING

It the same sorta chord progression but just half a step down so the chords are;

Abm 4-6-6-4-4-4 ...replace the Am with G#m
B   x-2-4-4-4-2 ...replace the C with B
F#  2-4-4-3-2-2 ...replace the G & G* with F#
F#* 3-4-4-3-2-2 ...replace the G** the F#*

RIFF
e|------------------------------------------------------------------------------------------|
B|------------------------------------------------------------------------------------------|
G|---3-3h4p3--------------------------------------------------------------------------------|
D|-----------6p4----------------------------------------------------------------------------|
A|------------------------------------------------------------------------------------------|
E|------------------------------------------------------------------------------------------|

Just use these chords and riff if your just too damn lazy to tune your guitar 

Mucho funs!
Добавлено: 10.04.2012
Другие материалы по этой песне:
  • Аккорды и текст

Страница создана 10.04.2012
http://primanota.ru/mike-dignam/taken-out-taken-down-chords.htm
Привет, Гость.
Предлагаем пройти революционный курс по гитаре.
Подарок от PrimaNota.Ru, забирай!