PrimaNota.ru - самый крупный в мире бесплатный архив песенных текстов, аккордов, табулатур и нот


Mike Cross - The Bounty Hunter - таба, видео

Регистрация Запомнить меня
Войти через:  Facebook Google Twitter Vk Yandex Mail.ru

Mike Cross - The Bounty Hunter - таба, видео

Печатать
Просмотров: 81
Intro:

      Dm        Dm             Dm       C         C       A7
|-----1-1-------1-1------------1-1------0-0-------0-0-----0-0-0-0--|
|-----3-3-------3-3------------3-3------1-1-------1-1-----2-2-2-2--|
|-----2-2--0h2--2-2--2h0-------2-2------0-0-------0-0-----0-0-0-0--|
|--0----------------------3-0-----------2-2--0h2--2-2-----2-2-2-2--|
|----------------------------------0h3--3-3-------3-3--0--0-0-0-0--|
|------------------------------------------------------------------|
      Dm        Dm             Dm       C         C
|-----1-1-------1-1------------1-1------0-0-------0-0--|
|-----3-3-------3-3------------3-3------1-1-------1-1--|
|-----2-2--0h2--2-2--2h0-------2-2------0-0-------0-0--|
|--0----------------------3-0-----------2-2--0h2--2-2--|
|----------------------------------0h3--3-3-------3-3--|
|------------------------------------------------------|
         Dm        Dm
||  -----1-1-------1-1--  ||
||o -----3-3-------3-3-- o||
||  -----2-2--0h2--2-2--  ||   x4
||  --0-----------------  ||
||o -------------------- o||
||  --------------------  ||

Verse:

      Dm        Dm      Dm        Dm      C         C       Dm        Dm
|-----1-1-------1-1-----1-1-------1-1-----0-0-------0-0-----1-1-------1-1--|
|-----3-3-------3-3-----3-3-------3-3-----1-1-------1-1-----3-3-------3-3--|
|-----2-2--0h2--2-2-----2-2--0h2--2-2-----0-0-------0-0-----2-2--0h2--2-2--|
|--0-----------------0--------------------2-2--0h2--2-2--0-----------------|
|--------------------------------------3--3-3-------3-3--------------------|
|--------------------------------------------------------------------------|
      Dm        Dm      Dm        Dm       C         C      A7
|-----1-1-------1-1-----1-1-------1-1-----0-0-------0-0-----0-0-0-0--|
|-----3-3-------3-3-----3-3-------3-3-----1-1-------1-1-----2-2-2-2--|
|-----2-2--0h2--2-2-----2-2--0h2--2-2-----0-0-------0-0-----0-0-0-0--|
|--0-----------------0--------------------2-2--0h2--2-2-----2-2-2-2--|
|--------------------------------------3--3-3-------3-3--0--0-0-0-0--|
|--------------------------------------------------------------------|
      Dm        Dm      Dm        Dm       C         C      Dm        Dm
|-----1-1-------1-1-----1-1-------1-1-----0-0-------0-0-----1-1-------1-1--|
|-----3-3-------3-3-----3-3-------3-3-----1-1-------1-1-----3-3-------3-3--|
|-----2-2--0h2--2-2-----2-2--0h2--2-2-----0-0-------0-0-----2-2--0h2--2-2--|
|--0-----------------0--------------------2-2--0h2--2-2--0-----------------|
|--------------------------------------3--3-3-------3-3--------------------|
|--------------------------------------------------------------------------|
      Dm        Dm      Dm        Dm       C         C      Dm        Dm
|-----1-1-------1-1-----1-1-------1-1-----0-0-------0-0-----1-1-------1-1--|
|-----3-3-------3-3-----3-3-------3-3-----1-1-------1-1-----3-3-------3-3--|
|-----2-2--0h2--2-2-----2-2--0h2--2-2-----0-0-------0-0-----2-2--0h2--2-2--|
|--0-----------------0--------------------2-2--0h2--2-2--0-----------------|
|--------------------------------------3--3-3-------3-3--------------------|
|--------------------------------------------------------------------------|

Chorus:

   F        G        Dm       A7       F        G        A7
|--1-1-1----3-3-3----1-1-1----0-0-0----1-1-1----3-3-3----0-0-0--|
|--1-1-1----0-0-0----3-3-3----2-2-2----1-1-1----0-0-0----2-2-2--|
|--2-2-2----0-0-0----2-2-2----0-0-0----2-2-2----0-0-0----0-0-0--|
|--3-3-3----0-0-0----0-0-0----2-2-2----3-3-3----0-0-0----2-2-2--|
|--3-3-3----2-2-2-------------0-0-0----3-3-3----2-2-2----0-0-0--|
|--1-1-1----3-3-3----------------------1-1-1----3-3-3-----------|


Post-Chorus:

      Dm        Dm             Dm       C         C       A7
|-----1-1-------1-1------------1-1------0-0-------0-0-----0-0-0-0--|
|-----3-3-------3-3------------3-3------1-1-------1-1-----2-2-2-2--|
|-----2-2--0h2--2-2--2h0-------2-2------0-0-------0-0-----0-0-0-0--|
|--0----------------------3-0-----------2-2--0h2--2-2-----2-2-2-2--|
|----------------------------------0h3--3-3-------3-3--0--0-0-0-0--|
|------------------------------------------------------------------|
      Dm        Dm             Dm       C         C       Dm        Dm
|-----1-1-------1-1------------1-1------0-0-------0-0-----1-1-------1-1--|
|-----3-3-------3-3------------3-3------1-1-------1-1-----3-3-------3-3--|
|-----2-2--0h2--2-2--2h0-------2-2------0-0-------0-0-----2-2--0h2--2-2--|
|--0----------------------3-0-----------2-2--0h2--2-2--0-----------------|
|----------------------------------0h3--3-3-------3-3--------------------|
|------------------------------------------------------------------------|



Order:

Intro
Verse
Verse
Chorus
Post-Chorus (Violin starts playing in background)
Verse
Verse
Chorus
Post-Chorus
Verse
(Cool Violin Thingy)
Verse
(Another Cool Violin Thingy)
End (No music, words only)



Lyrics:

"Good evening to you mister", the bounty hunter said.
"You don't know me but I know there's a price upon your head.
I know you're wanted dead or alive, thats what the posters say.
but I never shoot a man at night when he ain't had time to pray."

"So I'll give you until sunrise tomorrow, my friend,
before I come to shoot you down and bring your body in.
I warn you that I do my work quite well with gun or knife.
I've tracked down many a man, I've taken many a life."

Father do not mourn for me, mother do not weep.
Whatever a man soweth, that also shall he reap.

I spent a long and sleepless night with fear upon my breast,
trying to get ready for my morning duel with death.
I hid up in a hayloft out on the edge of town,
and at sunrise the bounty hunter came to shoot me down.

I fired down at the bounty hunter standing in the street.
He raised his gun and fired a round of shots back up at me.
He hit my chest and shoulder and my gun flew from my hand.
Now im trapped up in this hayloft, a wounded, unarmed man.

Father do not mourn for me, mother do not weep.
Whatever a man soweth, that also shall he reap.

The bounty hunter holds his fire and hollers up at me,
"Come out and take it like a man, I'll make it quick and clean."
I know my time is running out, and there's no way I can stall,
so I reach and grab the pitchfork that's hanging on the wall.

My body arches as I stretch and face the rising sun,
and I feel like a warrior's bow, freshy carved and strung.
I launch my body through the air, and the pitchfork in my hand
stabs the bounty hunter through the chest and pins him to the sand.

Now my muscles start to rust, my thoughts are growing cold,
while Gabriel and Satan shoot craps for my soul.



Fairly easy song to play, let the chords ring whenever possible.  I didn't put the timing on here, so you'll have to listen to the song a couple times to get it exact.  Enjoy.
Добавлено: 17.11.2013
Вам также может быть интересно:
Другие материалы по этой песне:
  • Аккорды и текст

Страница создана 17.11.2013
http://primanota.ru/mike-cross/the-bounty-hunter-chords.htm
Привет, Гость.
Предлагаем пройти революционный курс по гитаре.
Подарок от PrimaNota.Ru, забирай!