PrimaNota.ru - самый крупный в мире бесплатный архив песенных текстов, аккордов, табулатур и нот


Mike Comfort - Pledge - таба, видео

Регистрация Запомнить меня
Войти через:  Facebook Google Twitter Vk Yandex Mail.ru

Mike Comfort - Pledge - таба, видео

Печатать
Просмотров: 97
Mike Comfort is not very famous, but this song is awesome! Although this is my first 
its very accurate. Have fun.


Intro :

G             Dsus    Em       Em  D
---------3--------3-------------------2-|
--------3-3-----3--3----0-0p1--------3--|
-------0---0---2-2--2--------0----0-2---|  x2
-----0------0-0------0-2-2----2--2-0----|
--------------------------------2-------|
---3------------------0--------0--------|

Verse 1: (play as tab)

G             Dsus    Em       Em  D
---------3--------3-------------------2-|
--------3-3-----3--3----0-0p1--------3--|
-------0---0---2-2--2--------0----0-2---|  x4
-----0------0-0------0-2-2----2--2-0----|
--------------------------------2-------|
---3------------------0--------0--------|
If only I could, believe that I do deserve
Something this good, then i could relax and be myself
Cause if I'd fall, any harder i would break
In two and wish the other half was you(end strumming c)

Chorus: (stum these chords)
G   D      Em          C
No way, Sometimes I cannot believe my own eyes
G           D     Em                C                      G
You're beautiful like nothing that I've ever seen in this life
          D   Em           C                Em
And only once can anyone touch you so deep inside
      G            D        C
Like you do, like you do, like you do

verse 2: (play as tab)

G             Dsus    Em       Em  D
---------3--------3-------------------2-|
--------3-3-----3--3----0-0p1--------3--|
-------0---0---2-2--2--------0----0-2---|  x4
-----0------0-0------0-2-2----2--2-0----|
--------------------------------2-------|
---3------------------0--------0--------|

For you I pledge that anything you want is yours
That I will be the one who loves you more and more
When you laugh I'll cherish your breath on my face
When you cry, I'll taste your tears that fall like rain (end strumming C)

Repeat chorus 1

Bridge (strum chords)
Em                C                     G            D            Em
From that first moment that I felt like I was losing my self - control
        C                      G      D         Em
I'm thinking that I'd like to try to let myself go


Chorus 2: (strum chords)

G   D        Em        C
N way.  Sometimes I cannot believe my own eyes
G         D       Em                 C(one down strum)     G
You're beautiful like nothing that I've ever seen in this life
           D   Em           C                 Em
And only once, can anyone touch you so deep inside
      G            D            C            G
Like you do, like you do, like you do, like you do

D G D C (give last three only one down strum)

*play following (verse 2a) as tab*

G             Dsus    Em       Em  D
---------3--------3-------------------2-|
--------3-3-----3--3----0-0p1--------3--|
-------0---0---2-2--2--------0----0-2---|  x2
-----0------0-0------0-2-2----2--2-0----|
--------------------------------2-------|
---3------------------0--------0--------|

For you I pledge, that anything you want is yours
That I will be the one who loves you more and more. (end on G)
Добавлено: 13.04.2012
Вам также может быть интересно:
Другие материалы по этой песне:
  • Аккорды и текст

Страница создана 13.04.2012
http://primanota.ru/mike-comfort/pledge-chords.htm
Привет, Гость.
Предлагаем пройти революционный курс по гитаре.
Подарок от PrimaNota.Ru, забирай!