PrimaNota.ru - самый крупный в мире бесплатный архив песенных текстов, аккордов, табулатур и нот


Mike Batt - Introduction The Journey Of A Fool - таба, видео

Регистрация Запомнить меня
Войти через:  Facebook Google Twitter Vk Yandex Mail.ru

Mike Batt - Introduction The Journey Of A Fool - таба, видео

Печатать
Просмотров: 50
Introduction (Journey of a Fool) - Mike Batt (guitarist Rory Gallagher)

(then by Triple M with Kevin Borich on guitar called Dr Dan Theme)

3:08

  Am                                      C

e|------------------------------------------------------------|
B|-------------------------12-13-15-13-15b17~~~---------------|
G|---12---12h14p12---12-14------------------------------------|
D|-----h14--------h14-----------------------------------------|
A|------------------------------------------------------------|
E|------------------------------------------------------------|

                              G        F      Bb   F   E

e|--12h13p12--12-13-15-15b17-17r15-15-13h15h13----------------|
B|----------15--------------------------------15--13--\12~~~~-|
G|------------------------------------------------------------|
D|------------------------------------------------------------|
A|------------------------------------------------------------|
E|------------------------------------------------------------|

                                       Am

e|------12-14-12h14p12-12-17b19-r17-15-17~~~~~\---------------|
B|-12-15--------------15-----------------~~~~~----------------|
G|------------------------------------------------------------|
D|------------------------------------------------------------|
A|------------------------------------------------------------|
E|------------------------------------------------------------|

                        C                        G
                       Rpt 5 counts
e|----12-15-12h15p12---|-12h15p12-|--17b19~----15-------------|
B|--15--------------15-|----------|----------17--15b17--------|
G|---------------------|----------|---------------------------|
D|---------------------|:--------:|---------------------------|
A|---------------------|----------|---------------------------|
E|---------------------|----------|---------------------------|


      F        Bb      F         E

e|------------------------------------------------------------|
B|-15-13-12-13-15---13-13-13-13-12h13p12~--15-15b17-r15-b17~~~|
G|------------------------------------------------------------|
D|------------------------------------------------------------|
A|------------------------------------------------------------|
E|------------------------------------------------------------|
Добавлено: 04.12.2015
Другие материалы по этой песне:

Страница создана 12.03.2012
http://primanota.ru/mike-batt/introduction-the-journey-of-a-fool-chords.htm
Привет, Гость.
Предлагаем пройти революционный курс по гитаре.
Подарок от PrimaNota.Ru, забирай!