PrimaNota.ru - самый крупный в мире бесплатный архив песенных текстов, аккордов, табулатур и нот


Mikal Cronin - Made My Mind Up - аккорды и текст, видео

Регистрация Запомнить меня
Войти через:  Facebook Google Twitter Vk Yandex Mail.ru

Mikal Cronin - Made My Mind Up - аккорды и текст, видео

Печатать
Просмотров: 97
Made My Mind Up
Mikal Cronin
Intro / Main Theme:
                                C                        F                         C
E||----------1-1-1--0--------|------------------------|---------1-1-1--0--------|------------------------|
B||--------------------3--1--|--1-----------3/1-------|-------------------3--1--|--1-----------3/1-------|
G||--------------------------|---------------------2--|--2----------------------|---------------------2--|
D||--------------------------|------------------------|-------------------------|------------------------|
A||--------------------------|------------------------|-------------------------|------------------------|
E||--------------------------|------------------------|-------------------------|------------------------|


  F                         Am        G                F        G            C   
---------1-1-1--0--------|--0----0---------------|------------------------|-------------------||
-------------------3--1--|------------3--3----1--|-----1--1--1--0----0----|--1----------------||
-------------------------|-----------------------|------------------------|-------------------||
-------------------------|-----------------------|------------------------|-------------------||
-------------------------|-----------------------|------------------------|-------------------||
-------------------------|-----------------------|------------------------|-------------------||

The main theme is played throughout with some variations.

Verse 1:

C                  F
Just give it all a reason
C                 F
Just said it all afraid
  Am                 G           F      G
I got more time than what I need then
C                      F
Standing with you on the corner
C                         F
It's getting to late to recall
Am           G          F      G
Started out, far more ???

Chorus:

G                    Am    G
Just tell me when it hurts
G                    C     G
Just tell me when it hurts
G                    Am    G
Just tell me when it hurts
G            Dm   G
I've made my mind up 
G            Dm   G
I've made my mind up 

Post Chorus:

C F C F 
Am G F G 

Verse 2:

C                     F
Found my place in the morning
C                          F
Just tell me when you are around
Am            G             F     G
Gotta take the future in pain

C                      F
Sorry I can't feel the wind blow
C                     F
Sorry I can't see the end
     Am        G             F     G
It's over now, this could ???


Chorus:

G                    Am    G
Just tell me when it hurts
G                    C     G
Just tell me when it hurts
G                    Am    G
Just tell me when it hurts
G            Dm   G
I've made my mind up 
G            Dm   G
I've made my mind up 

Solo:

Am F C G x3
Dm G Dm G 
C F C F *

* during this part, the piano plays this:

     C                        F 
E||-----------0-------0--1--|-----------1--1--0--------||
B||--1-----1-------3--------|--------1-----------3--1--||
G||-----0-------------------|-----2--------------------||
D||-------------------------|--------------------------||
A||-------------------------|--------------------------||
E||-------------------------|--------------------------||

Outro:

Am G F G |
C F C F  |-- x2

Am G F G 
Am 

The lyrics are from the internet, I tried to improve them but I think they're still wrong. Enjoy!
Добавлено: 07.08.2015
Другие материалы по этой песне:
  • Аккорды и текст

Страница создана 07.08.2015
http://primanota.ru/mikal-cronin/made-my-mind-up-chords.htm
Привет, Гость.
Предлагаем пройти революционный курс по гитаре.
Подарок от PrimaNota.Ru, забирай!