PrimaNota.ru - самый крупный в мире бесплатный архив песенных текстов, аккордов, табулатур и нот


Mika - Les Baisers Perdus - таба, видео

Регистрация Запомнить меня
Войти через:  Facebook Google Twitter Vk Yandex Mail.ru

Mika - Les Baisers Perdus - таба, видео

Печатать
Просмотров: 105
Уроки эстрадного вокала в Санкт-Петербурге
-------------------------------------------------------------------------------
                  Les Baisers Perdus (Intro Tab) - Mika
-------------------------------------------------------------------------------
Tabbed by: Beni95 (b.eyraud@hotmail.fr)
E-mail: b.eyraud@hotmail.fr (if any suggest, or just to say thanks :p )

Tuning: Standard, No Capo

This is my first tab, so don't be mad at me if you find any mistake ;)
Enjoy that beautifull song

-------------------------------------------------


E|-----------------0-------------------------------------------------------|
B|-----------1---1---1-1-3-1-0-------1---------------1---------------------|
G|-----2---2---2---------------2-0-2---2---0-----0-2---2---0-----0---------|
D|---2---2-------------------------------2-----2---------2-----2-----------| x2
A|-0-----------------------------------------3---------------3-------------|
E|-------------------------------------------------------------------------|

************************************

| /   slide up
| \   slide down
| h   hammer-on
| p   pull-off
| ~   vibrato
| +   harmonic
| x   Mute note
| b   Bend
| pb  Pre-bend
| br  Bend release
| pbr Pre-bend release
| brb Bend release bend

************************************
Добавлено: 27.10.2015
Другие материалы по этой песне:
  • Аккорды и текст

Страница создана 27.10.2015
http://primanota.ru/mika/les-baisers-perdus-chords.htm
Привет, Гость.
Предлагаем пройти революционный курс по гитаре.
Подарок от PrimaNota.Ru, забирай!