PrimaNota.ru - самый крупный в мире бесплатный архив песенных текстов, аккордов, табулатур и нот


Mihindu Ariyarathne - Yana Thanaka - таба, видео

Регистрация Запомнить меня
Войти через:  Facebook Google Twitter Vk Yandex Mail.ru

Mihindu Ariyarathne - Yana Thanaka - таба, видео

Печатать
Просмотров: 21
                                YANA THANAKA  - MIHINDU ARIYARATNE
                                    TAB BY VISHWA GOPALLAWA

CHORD - Fm

<<<>>>>>>>


[intro]

E|--------------------------------------|
B|--------------------------------------|
G|-----1-----1--3-----------1-----1-----|
D|--------5--------------------5-----5--|
A|--3--------------------3--------------|
E|--------------------------------------|

E|--------------------------------------|
B|--------------------------------------|
G|-----1-----1--3-----------1-----1-----|
D|--------5--------------------5-----5--|
A|--3--------------------3--------------|
E|--------------------------------------|


[bridge]
E|--------------------------------------------------------|
B|--------------------------------------------------------|
G|--1--------------------------1--------1-----------------|
D|-----5--3--1-----3--1--5--3--------------5--3--1-----3--|
A|--------------4-----------------------------------4-----|
E|--------------------------------------------------------|

E|--------------------------------------------------------|
B|--------------------------------------------------------|
G|--1--------------------------1--------1-----------------|
D|-----5--3--1-----3--1--5--3--------------5--3--1-----3--|
A|--------------4-----------------------------------4-----|
E|--------------------------------------------------------|


E|-----------------------------------|
B|-----------------------------------|
G|--------1--3--1--5-----3--1-----1--|
D|--3--5-----------------------5-----|
A|-----------------------------------|
E|-----------------------------------|

E|-----------------------------------|
B|-----------------------------------|
G|--------1--3--1--5-----3--1-----1--|
D|--3--5-----------------------5-----|
A|-----------------------------------|
E|-----------------------------------|

[chorus]


E|--1-----1-----1-----------1-----1-----4--3--------1-----1-----1-----4--3--1--|
B|-----4-----4-----1-----------4-----4-----------------4-----4-----1-----------|
G|-----------------------------------------------------------------------------|
D|-----------------------------------------------------------------------------|
A|-----------------------------------------------------------------------------|
E|-----------------------------------------------------------------------------|

E|--1-----1-----1-----------1-----1-----4--3--------1-----1-----1-----4--3--1--|
B|-----4-----4-----1-----------4-----4-----------------4-----4-----1-----------|
G|-----------------------------------------------------------------------------|
D|-----------------------------------------------------------------------------|
A|-----------------------------------------------------------------------------|
E|-----------------------------------------------------------------------------|

[inter]

E|--4--3--4--1-----4--3--4--1-----4--3--4--1-----4--3--4--6--8--11--8--6--4--8--6--|
B|---------------------------------------------------------------------------------|
G|---------------------------------------------------------------------------------|
D|---------------------------------------------------------------------------------|
A|---------------------------------------------------------------------------------|
E|---------------------------------------------------------------------------------|

E|--4--3--4--1-----4--3--4--1-----4--3--4--1-----4--3--4--6--8--11--8--6--4--8--6--|
B|---------------------------------------------------------------------------------|
G|---------------------------------------------------------------------------------|
D|---------------------------------------------------------------------------------|
A|---------------------------------------------------------------------------------|
E|---------------------------------------------------------------------------------|


E|--4--3--4--1-----4--3--4--1-----4--3--4--1-----4--3--4--6--3-----4-----3--------|
B|-----------------------------------------------------------------------------4--|
G|--------------------------------------------------------------------------------|
D|--------------------------------------------------------------------------------|
A|--------------------------------------------------------------------------------|
E|--------------------------------------------------------------------------------|


E|--1---1--------1---1-----1--4--3--1---------------------------|
B|--------4-----------4-----------------4-----4--4--------------|
G|-----------------------------------------3--------3--1--5--3--|
D|--------------------------------------------------------------|
A|--------------------------------------------------------------|
E|--------------------------------------------------------------|


E|--1--1--------1--1-----1--4--3-----1-----------------------------------------|
B|--------4-----------4-----------------4-----4--4-----------------------------|
G|-----------------------------------------3--------3--1--5--3--------1--------|
D|-----------------------------------------------------------------------5--3--|
A|-----------------------------------------------------------------------------|
E|-----------------------------------------------------------------------------|


[verse]

E|--------------------------------------------------------------------1-----|
B|--1--1--2--1--------------1--1--2--1--------------1--1--2--1--2--4-----4--|
G|--------------3--1--------------------3--1--------------------------------|
D|--------------------------------------------------------------------------|
A|--------------------------------------------------------------------------|
E|--------------------------------------------------------------------------|

E|--------------------------------------------------------------------1-----|
B|--1--1--2--1--------------1--1--2--1--------------1--1--2--1--2--4-----4--|
G|--------------3--1--------------------3--1--------------------------------|
D|--------------------------------------------------------------------------|
A|--------------------------------------------------------------------------|
E|--------------------------------------------------------------------------|


E|--1--3-----3--3--4--3--1-----------------------3--3--4--3--1-----3--|
B|--------------------------4--1--1--2--1-----------------------1-----|
G|--------------------------------------------------------------------|
D|--------------------------------------------------------------------|
A|--------------------------------------------------------------------|
E|--------------------------------------------------------------------|
Добавлено: 08.04.2016
Другие материалы по этой песне:
  • Аккорды и текст

Страница создана 08.04.2016
http://primanota.ru/mihindu-ariyarathne/yana-thanaka-chords.htm
Привет, Гость.
Предлагаем пройти революционный курс по гитаре.
Подарок от PrimaNota.Ru, забирай!