PrimaNota.ru - самый крупный в мире бесплатный архив песенных текстов, аккордов, табулатур и нот


Mihail Luke - Get Up And Rock - аккорды и текст, видео

Регистрация Запомнить меня
Войти через:  Facebook Google Twitter Vk Yandex Mail.ru

Mihail Luke - Get Up And Rock - аккорды и текст, видео

Печатать
Просмотров: 58
Get Up And Rock
Mihail Luke
Come Up And Rock
Written By Luke Mihail, 2003

(Style of music- 50's rock 12 bar blues)

Intro-  A  D  A  D  E  A

   A                  A
I wanna live my life ...
A                   A
I wanna praise his ...
 D                    D
People say I'm crazy ...
                                                                               A              A
I say I love the God ...
  E                E                                                           I wanna praise him ..........
   A         A
I wanna praise him....


A            A
People say I'm ...
A                A
I say it's better then...
D              D
I can't comprehend ...
A                A
I answer them he's ...
E             E
He picks me up ...
A             A
When I'm with him...

                                          
   D          A             G
 Come and rock the end is near,
    D           A         G
Come up and dance, there's nothing to fear. 



||----9-------12-13----------------10---------------------10---6---7-
||-10-8-----10---13---------------8--------------------13------5---6-
||----8---10-----0--------------9------9-(slide to)-15---------6---7-
||------10-------0-----------10--------------------------------------
||---------------12-------14-----------------------------------------
||---------------13----15-15-----------------------------------------

----12------12-13----------------10---------------------10---6----15||
-10-11----10---13---------------8--------------------13------5----15||
----11--10-----0--------------9------6-(slide to)-12---------6------||
------10-------0-----------10---------------------------------------||
---------------12-------14------------------------------------------||
---------------13----15-15------------------------------------------||

(Repeat Lead, but transpose from A to D)

Written By L. Mihail
Transcribed by M. Thomas
     
Добавлено: 27.06.2013
Другие материалы по этой песне:
  • Аккорды и текст

Страница создана 27.06.2013
http://primanota.ru/mihail-luke/get-up-and-rock-chords.htm
Привет, Гость.
Предлагаем пройти революционный курс по гитаре.
Подарок от PrimaNota.Ru, забирай!