PrimaNota.ru - самый крупный в мире бесплатный архив песенных текстов, аккордов, табулатур и нот


Miguel Y Miguel - Cruz De Madera - таба, видео

Регистрация Запомнить меня
Войти через:  Facebook Google Twitter Vk Yandex Mail.ru

Miguel Y Miguel - Cruz De Madera - таба, видео

Печатать
Просмотров: 121
7--7-7-5-5-4--4-5--4-4---------|-----7--7-7-5-4--4-2-0-----------------|
B|--9--9-9-7-7-5--5-7--5-5-2-3-2-0-|--0--9--9-9-7-5--5-3-2-2h3-2-2-0---|
G|---------------------------------|-----------------------------------|
D|---------------------------------|-----------------------------------|
A|---------------------------------|-----------------------------------|
E|---------------------------------|-----------------------------------|

    A
e|-------------------------------------|-----------------------------------|
B|-------------------------------------|-----------------------------------|
G|-2--2-1------------------------------|-----------------------2---2---2---|
D|--------4--2-4-2-0---0-----------0---|-2-0-4-2-4-2-0---0-------4---4---4-|
A|-------------------4---4-2-0-4-2---4-|---------------4---4-2-------------|
E|-------------------------------------|-----------------------------------|


e|---------------------------0--|
B|---------------------------2--|
G|------------2--------------2--|
D|--2---2---2---4-2-4-2------2--|
A|----4---4-------------4-0-----|
E|------------------------------|


A
Una cruz de madera,
E7              A
de la más corriente. e|--------------------------------------|
                     B|--------------------------------------|
                     G|--------------------------------------|
                     D|-0--------0-0-----------0-0-----------|
                     A|---4-2-0------4-4-2-2-0-----4-4-2-2-0-|
                     E|--------------------------------------|
A
Eso es lo que quiero
               E7                                        C#7    D7   D#7   E7
cuando yo me muera.  e|-4-4-5-7--7-7--9-10-10--9-7-5-5-|---0-0---0-0---0-0---0---0--|
                     B|-5-5-7-9--9-9-10-12-12-10-9-7-7-|---2-2---3-3---4-4---5---5--|
                     G|--------------------------------|---4-4---5-5---6-6---7---7--|
                     D|--------------------------------|---3-3---4-4---5-5---6---6--|
                     A|--------------------------------|-4-----5-----6-----7--------|
                     E|--------------------------------|-----------------------7----|

E7
Yo no quiero lujos

que valgan millones

lo único que quiero es

que canten canciones

que sea una gran fiesta
                  A
la muerte de un pobre. e|-------------------------------------------------------------------------------------|
                       B|-------------------------------------------------------------------------------------|
                       G|-------------------------------------------------------------------------------------|
                       D|--7-6-4--2-4-2-0---0-----------0---2-0-4-2-4-2-0---0-----0-0-----------0-0-----------|
                       A|-----------------4---4-2-0-4-2---4---------------4---4-2-----4-4-2-2-0-----4-4-2-2-0-|
                       E|-------------------------------------------------------------------------------------|

A7              D
Yo no quiero llantos

yo no quiero penas

no quiero tristesas,
            E7                                        C#7   D7    D#7   E7
yo no quero nada. e|-4-4-5-7--7-7--9-10-10--9-7-5-5-|---0-0---0-0---0-0---0---0--|
                  B|-5-5-7-9--9-9-10-12-12-10-9-7-7-|---2-2---3-3---4-4---5---5--|
                  G|--------------------------------|---4-4---5-5---6-6---7---7--|
                  D|--------------------------------|---3-3---4-4---5-5---6---6--|
                  A|--------------------------------|-4-----5-----6-----7--------|
                  E|--------------------------------|-----------------------7----|

Lo único que quiero es

alla en mi velorio

una serenata
            A
por la madrugada.


REQUINTO:

     E
e|--7--7-7-5-5-4--4--5-5-4---------|-----7--7-7-5-4--4-2-0-----------|
B|--9--9-9-7-7-5--5-7-7--5-2-3-2-0-|--0--9--9-9-7-5--5-3-2-2h3-2-2-0-|
G|---------------------------------|---------------------------------|
D|---------------------------------|---------------------------------|
A|---------------------------------|---------------------------------|
E|---------------------------------|---------------------------------|


e|----------------------------|----------------------------------------|
B|----------------------------|----------------------------------------|
G|--2--2-1--------------------|--------------------------2-------------|
D|----------4--2--0-----------|---2------2------2------2---4-2-4-2-----|
A|-------------------4--2--0--|-4---0--4---0--4---0--4-------------4-0-|
E|----------------------------|----------------------------------------|


A
Cuando ya mi cuerpo este
E7           A
junto a la tumba. e|--------------------------------------|
                  B|--------------------------------------|
                  G|--------------------------------------|
                  D|-0--------0-0-----------0-0-----------|
                  A|---4-2-0------4-4-2-2-0-----4-4-2-2-0-|
                  E|--------------------------------------|
A
Lo único que pido
           E7
como despedida.  e|-4-4-5-7--7-7--9-10-10--9-7-5-5-|---0-0---0-0---0-0---0---0--|
                 B|-5-5-7-9--9-9-10-12-12-10-9-7-7-|---2-2---3-3---4-4---5---5--|
                 G|--------------------------------|---4-4---5-5---6-6---7---7--|
                 D|--------------------------------|---3-3---4-4---5-5---6---6--|
                 A|--------------------------------|-4-----5-----6-----7--------|
                 E|--------------------------------|-----------------------7----|
E7
Que en las cuatro esquinas

de mi sepultura,

como agua bendita
               A
que rieguen tequila.


A7              D
Yo no quiero llantos

yo no quiero penas

no quiero tristesas,
            E7                                        C#7   D7    D#7   E7
yo no quero nada. e|-4-4-5-7--7-7--9-10-10--9-7-5-5-|---0-0---0-0---0-0---0---0--|
                  B|-5-5-7-9--9-9-10-12-12-10-9-7-7-|---2-2---3-3---4-4---5---5--|
                  G|--------------------------------|---4-4---5-5---6-6---7---7--|
                  D|--------------------------------|---3-3---4-4---5-5---6---6--|
                  A|--------------------------------|-4-----5-----6-----7--------|
                  E|--------------------------------|-----------------------7----|
Добавлено: 14.04.2012
Другие материалы по этой песне:
  • Аккорды и текст

Страница создана 14.04.2012
http://primanota.ru/miguel-y-miguel/cruz-de-madera-chords.htm
Привет, Гость.
Предлагаем пройти революционный курс по гитаре.
Подарок от PrimaNota.Ru, забирай!