PrimaNota.ru - самый крупный в мире бесплатный архив песенных текстов, аккордов, табулатур и нот


Mighty Zep - Friends - аккорды и текст, таба, видео

Регистрация Запомнить меня
Войти через:  Facebook Google Twitter Vk Yandex Mail.ru

Mighty Zep - Friends - аккорды и текст, таба, видео

Печатать
Просмотров: 172
Уроки эстрадного вокала в Санкт-Петербурге
Friends
Mighty Zep
		   Tuning is (low to high) C,A,C,G,C,E

I just figured out that tuning while rewatching unledded. Always
wondered how to play dis song..

E:--0-0-0-0-
C:--0-0-0-0-
G:--0-0-0-0-
C:--4-4-4-4- x2
A:--3-3-3-3-
C:--0-0-0-0-

E:--0-0-0-0--0-3-0-2-0-0-2-0-2-0-2-
C:--0-0-0-0--0-3-0-2-0-0-2-0-2-0-2-
G:--0-0-0-0--0-3-0-2-0-0-2-0-2-0-2-
C:--4-4-4-4--4-4-4-4-4-4-4-4-4-4-4-
A:--3-3-3-3--3-3-3-3-3-3-3-3-3-3-3- x2
C:--0-0-0-0--0-0-0-0-0-0-0-0-0-0-0-

verse is somethin like:

E:--0-let-it-ring-open-the-whole-time----
C:--0-let-it-ring-open-the-whole-time----
G:--5 / 12--11-12-14 / 16 \ 9 / 11 \ 4-3-
C:--0-let-it-ring-open-the-whole-time----
A:--3 / 10--9--10-12 / 14 \ 7 / 9 \ 4-3--
C:--0-let-it-ring-open-the-whole-time----

Then the part just after Plant sings 'it's very easy just':  (is this..)

E:--mute-it-
C:--mute-it-
G:--5--8--7--10-9--12--11----------------
C:--0-let-it-ring-open-the-whole-time----
A:--3--6--5--8--7--10--9-----------------
C:--0-let-it-ring-open-the-whole-time----

Not much else to this song really..

Hope this serves well enough..

Dustin Zawalski (Page worshipper extreme)     
Добавлено: 11.07.2013
Другие материалы по этой песне:
  • Аккорды и текст

Страница создана 18.05.2012
http://primanota.ru/mighty-zep/friends-chords.htm
Привет, Гость.
Предлагаем пройти революционный курс по гитаре.
Подарок от PrimaNota.Ru, забирай!