PrimaNota.ru - самый крупный в мире бесплатный архив песенных текстов, аккордов, табулатур и нот


Mighty Mighty Bosstones - Pehla Nasha - таба, видео

Регистрация Запомнить меня
Войти через:  Facebook Google Twitter Vk Yandex Mail.ru

Mighty Mighty Bosstones - Pehla Nasha - таба, видео

Печатать
Просмотров: 78
Уроки эстрадного вокала в Санкт-Петербурге
-------------------------------------------------------------------------------
              Pehla Nasha - Jo Jeeta Wahi Sikandar
   Composer: Jatin-Lalit   Singer: Udit Narayan      Lyrics: Majrooh Sultanpuri
-------------------------------------------------------------------------------
Tabbed by: nikhil
Tuning: Standard

Intro:
                           F
e|5-5-8-8---8p5-----8-8----5--------5----------------------------------------|
B|--------------8-8--------6--6-6-8---8-6-------6----------------------------|
G|-------------------------5--------------7--77---7-5------------------------|
D|-------------------------7-------------------------------------------------|
A|---------------------------------------------------------------------------|
E|---------------------------------------------------------------------------|

e|---------------------------------------------------------------------------|
B|----6-------------------------------5--------------------------------------|
G|7-7---7----5-5-5--5h7---5--555-7875--5-7-5--5---5-7p5----------------------|
D|------------------------------------------------------8--8-----------------|
A|---------------------------------------------------------------------------|
E|---------------------------------------------------------------------------|

e|--5-----65-----------------------------------------------------------------|
B|----86----86--8--5--8-6--6-------------------------------------------------|
G|5-----7--------------------------------------------------------------------|
D|---------------------------------------------------------------------------|
A|---------------------------------------------------------------------------|
E|---------------------------------------------------------------------------|

F                  Bb   
  Chaahe tum kuchh na kaho
F             C
  maine sun liya
F           C
  Ki saathi pyaar ka 
Dm             Bb
  mujhe chun liya
       C               C
Chun liya, Maine Sun liya

Leads
F                       Dm                Bb                C
e|----------------8-----------------8-------------------5--------------------|
B|---6--66----5-6---6-5-6--66---5-6---6-5-----------5h6---6-8--88------------|
G|----------------------------------------7--77---7--------------------------|
D|---------------------------------------------------------------------------|
A|---------------------------------------------------------------------------|
E|---------------------------------------------------------------------------|
(x2)

F           Dm       C
   Pehla nasha,   Pehla khumaar
F                      C
   Naya pyaar hai naya intezaar
       Bb                 F
   Kar loon main kya apna haal
   Bb             C
   Aye dil-e-beka raar
     Bb           F
   Mere dil-e-bekaraar
           C      
   Tu hi bata
F           Dm       C
   Pehla nasha,   Pehla khumaar

   Dm                        C           Dm                        C
e|----10----------------8----8--8h10p8------10----------------8----8--8------|
B|-10----10-8-10---10h11--11-------------10----10-8-10---10h11--11-----8-----|
G|-10------------------------------------10----------------------------------|
D|-12------------------------------------12----------------------------------|
A|---------------------------------------------------------------------------|
E|---------------------------------------------------------------------------|
  Dm        C            Bb                         F
e|---------------------------------------------------------------------------|
B|10-11-10--8-10-8---------------------------------------11---10-------------|
G|-----------------10-9--10-9-7-9-7----7---7-9-10-9-10-----------------------|
D|----------------------------------10---------------------------------------|
A|---------------------------------------------------------------------------|
E|---------------------------------------------------------------------------|

F         Dm        C           F  
Udta hi firoon in hawaon mein kahin
F             Dm          C           F
Ya main jhool jaoon in ghataon mein kahin
F         Dm        C           F  
Udta hi firoon in hawaon mein kahin
F             Dm          C           F
Ya main jhool jaoon in ghataon mein kahin
   Bb                 F
Ek kar doon aasmaan zameen
     Bb                      C      Bb  C
Kaho yaaron kya karoon kya nahin

F          Dm        C
   Pehla nasha,   Pehla khumaar
F                      C
   Naya pyaar hai naya intezaar
       Bb                 F
   Kar loon main kya apna haal
   Bb             C
   Aye dil-e-beka raar
     Bb           F
   Mere dil-e-bekaraar
           C      
   Tu hi bata
F          Dm        C
   Pehla nasha,   Pehla khumaar
   
(Bb)...(Ab)...(Bb)...(Ab)...(F)

F         Dm       C          F
Usne baat ki kuchh aise dhang se
F          Dm      C            F
Sapne de gaya vo hazaaron range ke
F         Dm       C          F
Usne baat ki kuchh aise dhang se
F          Dm      C            F
Sapne de gaya vo hazaaron range ke
    Bb                    F
Reh jaoon jaise main haar ke
    Bb                    C      Bb  C
Aur choome vo mujhe pyaar se

F          Dm        C
   Pehla nasha,   Pehla khumaar
F                      C
   Naya pyaar hai naya intezaar
       Bb                 F
   Kar loon main kya apna haal
   Bb             C
   Aye dil-e-beka raar
     Bb           F
   Mere dil-e-bekaraar
           C      
   Tu hi bata (Tune x 3)
Добавлено: 01.08.2013
Вам также может быть интересно:
Другие материалы по этой песне:
  • Аккорды и текст

Страница создана 01.08.2013
http://primanota.ru/mighty-mighty-bosstones/pehla-nasha-chords.htm
Привет, Гость.
Предлагаем пройти революционный курс по гитаре.
Подарок от PrimaNota.Ru, забирай!