PrimaNota.ru - самый крупный в мире бесплатный архив песенных текстов, аккордов, табулатур и нот


Mighty Mighty Bosstones - Dogs And Chaplains - текст песни, таба, бас-таба, видео

Регистрация Запомнить меня
Войти через:  Facebook Google Twitter Vk Yandex Mail.ru

Mighty Mighty Bosstones - Dogs And Chaplains - текст песни, таба, бас-таба, видео

Печатать
Просмотров: 131
Mighty Mighty Bosstones - Dogs and Chaplains
Question the Answers

Tabbed By: Nick Reed (subloom21@hotmail.com)

This is a great song and it's great to play if you can get it.


Intro
           (light P.M.)                               (x3)
E|------------------------------------|----------------------------------------|
B|------------------------------------|----------------------------------------|
G|------------------------------------|----------------------------------------|
D|----------------------------5--4----|----------------------------------9-9---|
A|----------------------------3--2^0--|-------------------------3-2^0----7-7---|
E|--0--2--3--2--0--2--0--2------------|-0--0--2--3--2^0--2--0-2----------------|
(each note strummed as triplet)

the little jazz part
(guitar starts about half through)

E|---7-7--7---x-x-x--|---7--x--7--x--7--|
B|---7^8--8---x-x-x--|---8--x--8--x--8--|
G|---9-9--9---x-x-x--|---9--x--9--x--9--|
D|------------x-x-x--|------x-----x-----| Repeat as needed
A|------------x-x-x--|------x-----x-----|
E|------------x-x-x--|------x-----x-----|
         (x2)

E|----------------------|-----------|
B|----------------------|-----------|
G|----------------------|--9-9-9-9--|
D|--------------5~------|--9-9-9-9--|
A|--7~--5~--7~------7~--|--7-7-7-7--|
E|----------------------|-----------|


Verse
               (use ska upstroke)
E|-----4-4-4-4--5-5-5-5-----|
B|-----5-5-5-5--5-5-5-5-----|
G|-----4-4-4-4--6-6-6-6-----|
D|--------------------------|
A|--------------------------|
E|--------------------------|

      "Johnny Vegas!"
E|--------------------------------|
B|--------------------------------|
G|--------------------------------|
D|--2-2---2-----------------------|
A|--0-0---0-------5--3---5\3------|
E|-----------0^2--3--1---3\1------|


- Well thats about it
     
Добавлено: 07.08.2013
Другие материалы по этой песне:
  • Аккорды и текст

Страница создана 16.04.2012
http://primanota.ru/mighty-mighty-bosstones/dogs-and-chaplains-chords.htm
Привет, Гость.
Предлагаем пройти революционный курс по гитаре.
Подарок от PrimaNota.Ru, забирай!