PrimaNota.ru - самый крупный в мире бесплатный архив песенных текстов, аккордов, табулатур и нот


Mighty Mighty Bosstones - A Sad Silence - текст песни, таба, видео

Регистрация Запомнить меня
Войти через:  Facebook Google Twitter Vk Yandex Mail.ru

Mighty Mighty Bosstones - A Sad Silence - текст песни, таба, видео

Печатать
Просмотров: 126
Mighty Mighty Bosstones - A Sad Silence
Question the Answers

Tabbed by: Nick Reed (subloom21@hotmail.com)

This song has awesome guitar parts, it sounds a lot better with two
guitars playing instead of just one.

      h - hammer on
      p - pull off
      / - slide up
      \ - slide down
      x - muted, struck string
      PM - palm mute

Intro

E|---3--|----------------------------------------------------|
B|---0--|----------------------------------------------------|
G|---0--|------------------------------------5p4p0--0h7p0----|
D|---2--|----4-5---4-5-4-5---4-5-5-5---5-5-------------------|
A|---3--|----------------------------------------------------|
E|------|----------------------------------------------------|


E|---------------------------------------------------------------|
B|---------------------------------------------------------------|
G|---------------------------------------------------------------|
D|----4-5---4-5-4-5---4-5-4-5---5-5------------------------------|
A|------------------------------------3^2^0---------5--------3---|
E|--------------------------------------------0-0-0----0-0-0-----|


Verse     (use ska upstroke)

     (x2)    (x2)           (hold)
E|--x-x-3---x-x-5---x-x-7---x-x-8-----x-x-8---x-x-11\--(slide to)--|
B|--x-x-3---x-x-5---x-x-7---x-x-8-----x-x-8---x-x-11\--(3rd fret)--|
G|-----------------------------------------------------------------|
D|-----------------------------------------------------------------|
A|-----------------------------------------------------------------|
E|-----------------------------------------------------------------|
                           Repeat as needed


E|---3-----------|---------------------|
B|---0---3p1p0---|---------------------|
G|---0-----------|---------------------|
D|---2-----------|---------------------|
A|---3-----------|--3--2--3--2--3/5----|
E|---------------|---------------------|



Pre Chorus

   GUITAR ONE
E|-------------------------------|--------------------------------|
B|-------------------------------|--------------------------------|
G|-------------------------------|--------------------------------|
D|--4--4-------------4-----------|--5--5------------5--5----------|
A|--2--2---5-5---4---2--5-5---4--|--3--3--5-5---4---3--3--5-5---4-|
E|---------3-3---2------3-3---2--|--------3-3---2---------3-3---2-|
            PM             PM                 PM              PM


   GUITAR TWO (starts halfway through guitar ones part)
E|--------------------------------------------------|
B|--------------------------------------------------|
G|----------------------------------5p4p0--0h7p0----|
D|--4-5---4-5-4-5---4-5-5-5---5-5-------------------|
A|--------------------------------------------------|
E|--------------------------------------------------|

E|-------------------------------------------------------------|
B|-------------------------------------------------------------|
G|-------------------------------------------------------------|
D|--4-5---4-5-4-5---4-5-4-5---5-5------------------------------|
A|----------------------------------3p2p0---------5--------3---|
E|------------------------------------------0-0-0----0-0-0-----|


Chorus
      (x4)    (strum as needed)
E|---x-x-3--|---3--------------|
B|---x-x-2--|---0--------------|
G|---x-x-3--|---0--------------|
D|---x-x-0--|---2--------------|
A|----------|---3--------------|
E|----------|------------------|

   -Have fun :)
     
Добавлено: 18.08.2013
Другие материалы по этой песне:
  • Аккорды и текст

Страница создана 27.02.2012
http://primanota.ru/mighty-mighty-bosstones/a-sad-silence-chords.htm
Привет, Гость.
Предлагаем пройти революционный курс по гитаре.
Подарок от PrimaNota.Ru, забирай!