PrimaNota.ru - самый крупный в мире бесплатный архив песенных текстов, аккордов, табулатур и нот


Mighty Mighty Bosstones - A Jackknife To A Swan - текст песни, бас-таба, драм-таба, видео

Регистрация Запомнить меня
Войти через:  Facebook Google Twitter Vk Yandex Mail.ru

Mighty Mighty Bosstones - A Jackknife To A Swan - текст песни, бас-таба, драм-таба, видео

Печатать
Просмотров: 128
-------------------------------------------------------------------------------
                 A Jackknife To A Swan - Mighty Mighty Bosstones
-------------------------------------------------------------------------------
Tabbed by: Mike C
E-mail: MichaelECaparas@gmail.com

Tuning: Standard

INTRO x2

G|--------------------5-4---|
D|-------5~--5-----5--------|
A|-3-5-7----5-5-3s5-5--5-5--|
E|--------------------------|

G|--------------------5-4---|
D|-----------5-----5--------|
A|-3-5-7-5~-5-5-3s5-5--5-5--|
E|--------------------------|

G|--------------------5-4---|
D|-----------5-----5--------|
A|-3-5-7----5-5-3s5-5--5-5--|
E|-------5~-----------------|

G|-------------------------|
D|-------------------------|
A|-3-5-7-3-3-22-33-22-3-3--|
E|-------------------------|

VERSE

G|------------------------------------|
D|------------------------------------|
A|---------5-5-5553-7-7-7775-3-2---2--|
E|-3-3-3-3-----------------------5----|

G|-----------------------------------|
D|-----------------------------------|
A|----------5-5-5553-7-7-7775-3-5-7--|
E|-3-3-3331--------------------------|

G|--------------5-4---|
D|-5~--5-----5--------|
A|----5-5-3s5-5--5-5--|
E|--------------------|

G|--------------------5-4---|
D|-----------5-----5--------|
A|-3-5-7-5~-5-5-3s5-5--5-5--|
E|--------------------------|

G|--------------------5-4---|
D|-----------5-----5--------|
A|-3-5-7----5-5-3s5-5--5-5--|
E|-------5~-----------------|

G|-----------------------------|
D|-----------------------------|
A|-3-5-7-3-3-22-33-22-3-3-232--|
E|-----------------------------|

CHORUS

G|----------------------------------------------------------------------|
D|----------------------------------------------------------------------|
A|---------5-5-555-7-7-777-3-33-333---------5-55-555-7-7-7-777-3-3-333--|
E|-3-3-333--------------------------3-3-333-----------------------------|

INTERLUDE

G|----------------------------------|
D|----------------------------------|
A|---------3~-3~-3---------3~-3~-3--|
E|-5~-5~-5---------5~-5~-5----------|

VERSE
CHORUS
INTERLUDE

G|---------------------------------------------|
D|---------------------------------------------|
A|--------50505~------------------------3-5-7--|
E|-30303~--------30303~-1-1-111-1-1-111--------|

=================================
G|--------------5-4---|
D|-5~--5-----5--------|
A|----5-5-3s5-5--5-5--|
E|--------------------|

G|--------------------5-4---|
D|-----------5-----5--------|
A|-3-5-7-5~-5-5-3s5-5--5-5--|
E|--------------------------|

G|--------------------5-4---|
D|-----------5-----5--------|
A|-3-5-7----5-5-3s5-5--5-5--|
E|-------5~-----------------|

G|-----------------------------|
D|-----------------------------|
A|-3-5-7-3-3-22-33-22-3-3-232--| X2
E|-----------------------------|
==================================
CHORUS X2


I don't know if this is 100%, but I think it's close. I really just wanted to get it 
done because there are
no other tabs of this song yet, despite how good it is.
Добавлено: 12.08.2015
Другие материалы по этой песне:
  • Аккорды и текст

Страница создана 24.05.2012
http://primanota.ru/mighty-mighty-bosstones/a-jackknife-to-a-swan-chords.htm
Привет, Гость.
Предлагаем пройти революционный курс по гитаре.
Подарок от PrimaNota.Ru, забирай!