PrimaNota.ru - самый крупный в мире бесплатный архив песенных текстов, аккордов, табулатур и нот


Mif 5 18 - Speed Minus One E - аккорды и текст, видео

Регистрация Запомнить меня
Войти через:  Facebook Google Twitter Vk Yandex Mail.ru

Mif 5 18 - Speed Minus One E - аккорды и текст, видео

Печатать
Просмотров: 68
Speed Minus One E
Mif 5 18
Band: mif 5:18
Song: Speed minus one e
c.d.: speed minus one e
this song is awesome
standard tuning

intro
e|-------------------------------------------- 
b|--------------------------------------------
g|--------------------------------------------
d|-2-2-2-3-3-3-5-5-5-3-3-3-2-3-2-0------------ x3
a|-0-0-0-0-0-0-0-0-0-0-0-0-0-0-0-0------------
e|--------------------------------------------

Verse 
e|--------------------------------------------------
b|--------------------------------------------------
g|-------------------------------4-4-4-4-4----------x3
d|-4-4-4-4-4-6-6-6-6-6-2-2-2-2-2-4-4-4-4-4----------
a|-4-4-4-4-4-6-6-6-6-6-2-2-2-2-2-2-2-2-2-2----------
e|-2-2-2-2-2-4-4-4-4-4-0-0-0-0-0--------------------
p.m. ..........................................

chorus
e|--------------------------------------------------
b|--------------------------------------------------
g|-------------------------------4-4-4-4-4----------
d|-4-4-4-4-4-6-6-6-6-6-2-2-2-2-2-4-4-4-4-4----------x4
a|-4-4-4-4-4-6-6-6-6-6-2-2-2-2-2-2-2-2-2-2----------
e|-2-2-2-2-2-4-4-4-4-4-0-0-0-0-0--------------------

end with
e|-------------------------------------------- 
b|--------------------------------------------
g|--------------------------------------------
d|-2-2-2-3-3-3-5-5-5-3-3-3-2-3-2-0------------ x4
a|-0-0-0-0-0-0-0-0-0-0-0-0-0-0-0-0------------
e|--------------------------------------------

I think it^Òs pretty accurate.  Have Fun and ENJOY!!!!!!!!! 
by Ryan

     
Добавлено: 02.12.2013
Другие материалы по этой песне:
  • Аккорды и текст

Страница создана 02.12.2013
http://primanota.ru/mif-5-18/speed-minus-one-e-chords.htm
Привет, Гость.
Предлагаем пройти революционный курс по гитаре.
Подарок от PrimaNota.Ru, забирай!