PrimaNota.ru - самый крупный в мире бесплатный архив песенных текстов, аккордов, табулатур и нот


Midtown - One Last Time - аккорды и текст, видео

Регистрация Запомнить меня
Войти через:  Facebook Google Twitter Vk Yandex Mail.ru

Midtown - One Last Time - аккорды и текст, видео

Печатать
Просмотров: 152
Уроки эстрадного вокала в Санкт-Петербурге
One Last Time
Midtown
Midtown - One Last Time
 
From the album "Living Well Is The Best Revenge"
 
Standard tuning
 
Intro: 2x
 
1st guitar:
G ---------------6-------------8-------------4----------------
D -4-------------6-------------8-------------4----------------
A -4-------------4-------------6-------------2----------------
E -2----------------------------------------------------------
 
2nd guitar:
E ------------------------------------------------------------
B -------------7-6~-------------------------------------------
G ---------3-6-------------6/3-6-4-3---------6-4-3------------
D -4-4-4-4---------------------------5/4-----------5/4--------
 
Verse: 2x
 
1st guitar:
G -8-------------6-------------4--------------4---------------
D -8-------------6-------------4--------------4---------------
A -6-------------4-------------2--------------2---------------
E ------------------------------------------------------------
 
2nd guitar: (occasionally)
E ------------
B ---7--------
G -4---6------
D ------------
 
Prechorus:
 
both guitars: (p means palm mute)
G ---------------4--------p4-4----------------4----------------
D -6-------------4--------p4-4-6--------------4----------------
A -6-------------2--------p2-2-6--------------2----------------
E -4---------------------------4-------------------------------
   
  you're not    looking...     I'm still     watching
 
then:
G --------6------8-------------4--------------6----------------
D -4------6------8-------------4--------------6----------------
A -4------4------6-------------2--------------4----------------
E -2-----------------------------------------------------------
 
...you                        can we...      can we move on?
 
Chorus: both play intro part of 1st guitar
 
Bridge 1: something like
G -8-8-8-8-8/6-6-6-6-
D -x-x-x-x-x/x-x-x-x-
A -6-6-6-6-6/4-4-4-4-
E -------------------
 
Repeat Verse, 3rd guitar plays Bridge 1
 
Repeat Prechorus
 
Repeat Chorus
 
Bridge 2:
 
1st guitar:
G -8-----------4------------8-----------4-----------
D -8-----------4------------8-----------4-----------
A -6-----------2------------6-----------2-----------
E --------------------------------------------------
 
2nd guitar:
E --------------------------------------------------
B --------------------------------------------------
G -6~--6-8-6-3-4-3----------6~--6-8-6-3-4-3---------
D -----------------4-6----------------------4~------
 
Repeat Chorus 2x, end on F#
 
last chorus has a keyboard I can't figure out exactly,
I usually play some melody with 2nd guitar's
notes of bridge 2, something like:
 
G -6-6-4-3----- and so on
D ---------4-6-
 

tabbed by Daniel Becker (theradiostillsucks@gmx.net)
corrections, questions etc. welcome
 
please visit my band's website www.alifelessordinary.de
 
thanks
     
Добавлено: 06.06.2013
Вам также может быть интересно:
Другие материалы по этой песне:
  • Аккорды и текст

Страница создана 05.06.2012
http://primanota.ru/midtown/one-last-time-chords.htm
Привет, Гость.
Предлагаем пройти революционный курс по гитаре.
Подарок от PrimaNota.Ru, забирай!