PrimaNota.ru - самый крупный в мире бесплатный архив песенных текстов, аккордов, табулатур и нот


Midtown - Help Me Sleep - текст песни, таба, видео

Регистрация Запомнить меня
Войти через:  Facebook Google Twitter Vk Yandex Mail.ru

Midtown - Help Me Sleep - текст песни, таба, видео

Печатать
Просмотров: 134
-------------------------------------------------------
                             Help Me Sleep - Midtown
-------------------------------------------------------
11/30/08

Tabbed by: thelip285
Email: thelip285@aol.com

Tuning: standard 

I am missing some of the leads, but this is most of the song.


Intro & Verse. Palm mute it

e|---------------------------------------|
B|---------------------------------------|
G|---------------------------------------| x2 
D|-----4444---------4444---------6666----|
A|----------x6-----------x2-----------x2-|
E|-2222---------5555---------7777--------|


e|-----|
B|-----|
G|-4---| Let it ring for intro, verse play a few times 
A|-4---|
E|-2---|

1st Chorus

e|----------------------------------------------------|
B|----------------------------------------------------|
G|---------------------4------------------------------|
D|-4------7------2-----4-x8---------------------------|
A|-4-x16--7-x16--2-x8--2------------------------------|
E|-2------5------0------------------------------------|

2nd Chorus

e|-------------------------------------------------|
B|-------------------------------------------------|
G|---------------------4---------------------------| x2
D|-4------7------2-----4-x8------------------------|
A|-4-x16--7-x16--2-x8--2---------------------------|
E|-2------5------0---------------------------------|

“Make me forget…”

e|---------------|
B|---------------|
G|---------------| 
D|-----4444------|
A|-----------x2--|
E|-2222----------|

“…all.”                        “Cause I cannot…”

e|--------------------------------------------------|
B|--------------------------------------------------|
G|-------------4-----1----------7-----6-------------|
D|-4-----7-----4-----2-x5-------7-x5--6-x5----------|
A|-4-x5--7-x5--2-x5--2----------5-----4-------------|
E|-2-----5-----------0------------------------------|

“…more.”                       “Cause I cannot…”
 
e|--------------------------------------------------|
B|--------------------------------------------------|
G|-------------4-----1----------7-----6-------------|
D|-4-----7-----4-----2-x5-------7-x5--6-x5----------|
A|-4-x5--7-x5--2-x5--2----------5-----4-------------|
E|-2-----5-----------0------------------------------|

Bridge

e|-------------------------------------------------|
B|-------------------------------------------------|
G|---------------------4---------------------------| x2
D|-4---------7---------4---------------------------|
A|-4-x-many--7-x-many--2-x-many--------------------|
E|-2---------5-------------------------------------|

3rd Chorus

e|-----------------------------------|
B|-----------------------------------|
G|--------1--------------------------| 
D|-4--7---2--------------------------| 
A|-4--5---2--------------------------|
E|-2--5---0--------------------------|

e|-------------------------------------------------|
B|-------------------------------------------------|
G|---------------------4---------------------------| 
D|-4------7------2-----4-x8------------------------|
A|-4-x16--7-x16--2-x8--2---------------------------|
E|-2------5------0---------------------------------|

“…all.”                        “Cause I cannot…”

e|--------------------------------------------------|
B|--------------------------------------------------|
G|-------------4-----1----------7-----6-------------|
D|-4-----7-----4-----2-x5-------7-x5--6-x5----------|
A|-4-x5--7-x5--2-x5--2----------5-----4-------------|
E|-2-----5-----------0------------------------------|

“…more.”                       “Cause I cannot…”
 
e|--------------------------------------------------|
B|--------------------------------------------------|
G|-------------4-----1----------7-----6-------------|
D|-4-----7-----4-----2-x5-------7-x5--6-x5----------|
A|-4-x5--7-x5--2-x5--2----------5-----4-------------|
E|-2-----5-----------0------------------------------|
Добавлено: 20.04.2012
Другие материалы по этой песне:
  • Аккорды и текст

Страница создана 20.04.2012
http://primanota.ru/midtown/help-me-sleep-chords.htm
Привет, Гость.
Предлагаем пройти революционный курс по гитаре.
Подарок от PrimaNota.Ru, забирай!