PrimaNota.ru - самый крупный в мире бесплатный архив песенных текстов, аккордов, табулатур и нот


Midtown - Find Comfort In Yourself - текст песни, таба, видео

Регистрация Запомнить меня
Войти через:  Facebook Google Twitter Vk Yandex Mail.ru

Midtown - Find Comfort In Yourself - текст песни, таба, видео

Печатать
Просмотров: 180
Уроки эстрадного вокала в Санкт-Петербурге
Find Comfort In Yourself

By: Midtown

Tabbed by: Norm "Mr. take advantage of your mom when your not home" Burns
            and.......Skyler Anderson, SASQUATCH HUNTER!

This tab is just the basic song.  This does not have that cool guitar solo
in it.
You will have to add your own fine touches..........because we are to lazy
to type
it all out.

(IntroA) 

E|-----------------------------------------------------------------------| 
B|-----------------------------------------------------------------------| 
G|--555555555555--7/88888888888888---------------------------------------| 
D|--555555555555--7/88888888888888--66666666666666--8/55555555555555-----|
A|--333333333333--5/66666666666666--66666666666666--8/55555555555555-----|
E|----------------------------------44444444444444--6/33333333333333-----| 

(IntroB)

E|-----------------------------------------------------------------------|
B|--44--3--4--4644--3--4--4644--3--4--4688886344343----------------------|
G|----3--3--3------3--3--3-----3--3--3------------------------------|
D|-----------------------------------------------------------------------|
A|-----------------------------------------------------------------------|
E|-----------------------------------------------------------------------|

E|-----------------------------------------------------------------------|
B|--44--3--4--4644--3--4--4644--3--4--46888863443431---------------------|
G|-----3--3--3-----3--3--3-----3--3--3------------------------------|
D|-----------------------------------------------------------------------|
A|-----------------------------------------------------------------------|
E|-----------------------------------------------------------------------|

(Verse) 

E|-----------------------------------------------------------------------| 
B|-----------------------------------------------------------------------| 
G|--555555555555--88888888888888-----------------------------------------| 
D|--555555555555--88888888888888--66666666666666--55555555555555---------| 
A|--333333333333--66666666666666--66666666666666--55555555555555---------| 
E|--------------------------------44444444444444--33333333333333---------| 

(Chorus) 

E|-----------------------------------------------------------------------| 
B|-----------------------------------------------------------------------| 
G|---------------7/88888888888-------------------------------------------| 
D|--66666666666--7/88888888888--666666666666--8/555555555555-------------| 
A|--66666666666--5/66666666666--666666666666--8/555555555555-------------| 
E|--44444444444-----------------444444444444--6/333333333333-------------| 

E|-----------------------------------------------------------------------| 
B|-----------------------------------------------------------------------| 
G|--------------7/88888888888--------------------------------------------| 
D|-66666666666--7/88888888888--3333333333333-/5/666666---8-8-8-8------| 
A|-66666666666--5/66666666666--3333333333333-/5/666666---8-8-8-8------| 
E|-44444444444-----------------1111111111111-/3/444444---6-6-6-6------| 

(After The Chorus)

E|-----------------------------------------------------------------------| 
B|-----------------------------------------------------------------------| 
G|--555555--888888-------------------------------------------------------| 
D|--555555--888888--888888--55555/6--------------------------------------| 
A|--333333--666666--888888--55555/6--------------------------------------| 
E|------------------666666--33333/4------------------------------| 

(Ending)

E|-----------------------------------------------------------------------| 
B|-----------------------------------------------------------------------| 
G|---------------7/88888888888-------------------------------------------| 
D|--66666666666--7/88888888888--666666666666--555555555555---------------| 
A|--66666666666--5/66666666666--666666666666--555555555555---------------| 
E|--44444444444-----------------444444444444--333333333333---------------| 

E|-----------------------------------------------------------------------| 
B|-----------------------------------------------------------------------| 
G|---------------7/88888888888-------------------------------------------| 
D|--66666666666--7/88888888888--666666666666--555555555555---------------| 
A|--66666666666--5/66666666666--666666666666--555555555555---------------| 
E|--44444444444-----------------444444444444--333333333333---------------| 

E|-----------------------------------------------------------------------| 
B|-----------------------------------------------------------------------| 
G|--5/3/-------------7/88888888888---------------------------------------| 
D|--5/3/66666666666--7/88888888888--666666666666--555555555555-----------| 
A|--3/1/66666666666--5/66666666666--666666666666--555555555555-----------| 
E|------44444444444-----------------444444444444--333333333333-----------| 

E|------------------------------------------------------------------------|
B|------------------------------------------------------------------------|
G|--------------7/88888888888-------------------------------------555--|
D|-66666666666--7/88888888888--3333333333333-/5/666666---8-8-8-8--555--|
A|-66666666666--5/66666666666--3333333333333-/5/666666---8-8-8-8--333--|
E|-44444444444-----------------1111111111111-/3/444444---6-6-6-6-------|
 
Play Order: 

IntroA x2 IntroB  x2
Verse x2 
Chorus x1 
After Chorus x2 
Verse x2 
Chorus x1 
After Chorus x4 
End x1 

                I am positive that this is 100% correct.  Have fun.  Word.
     
Добавлено: 06.06.2013
Другие материалы по этой песне:
  • Аккорды и текст

Страница создана 27.07.2012
http://primanota.ru/midtown/find-comfort-in-yourself-chords.htm
Привет, Гость.
Предлагаем пройти революционный курс по гитаре.
Подарок от PrimaNota.Ru, забирай!