PrimaNota.ru - самый крупный в мире бесплатный архив песенных текстов, аккордов, табулатур и нот


Midnight Youth - Start Saving - таба, бас-таба, видео

Регистрация Запомнить меня
Войти через:  Facebook Google Twitter Vk Yandex Mail.ru

Midnight Youth - Start Saving - таба, бас-таба, видео

Печатать
Просмотров: 115


Morning comes
I'm lying with my friends
with every smile
were trying to pretent
we'll never pour
e|-----------------------|
B|-----------------------|
G|-----------------------|
D|-6-6-6-6-8-8-8-8-------|
A|-6-6-6-6-8-8-8-8-------|
E|-4-4-4-4-6-6-6-6-------|
    

or go our separate ways
e|----------------------------|
B|----------------------------|
G|-8----10---------13-13-13-14|
D|-8----10---12----13-13-13-13|
A|-6----8----10----11-11-11-11|
E|----------------------------|
    
but time says we'll just be fine
e|-------------------------------------|
B|-------------------------------------|
G|---------------------8-8--101013-13--|
D|--6-6-6-6-8-8-8-8-8--8-8--101013-13--|
A|--6-6-6-6-8-8-8-8-8--6-6--8-8-10-11--|
E|--4-4-4-4-6-6-6-6-6------------------|


We grew so fast
were tracking cross the world
we don't look back except
maybe for that girl
but one day we will see
e|---------------------|
B|---------------------|
G|---------------------|
D|-6-6-6-6--8-8-8-8----|
A|-6-6-6-6--8-8-8-8----|
E|-4-4-4-4--6-6-6-6----|

the forest for the trees
e|--------------------------|
B|--------------------------|
G|--8-8-101012-13-13-13-13--|
D|--8-8-101012-13-13-13-13--|
A|--6-6-8-8-10-11-11-11-11--|
E|--------------------------|

and time says that we'll just be fine
e|-------------------------------------------|
B|-------------------------------------------|
G|-------------------------8-8-1010-12---13--|
D|-6-6-6-6-8-8-8-8---------8-8-1010-12---13--|
A|-6-6-6-6-8-8-8-8---------6-6-8-8--10---11--|
E|-4-4-4-4-6-6-6-6---------------------------|

So please start saving
e|----------------------------|
B|----------------------------|
G|--------------8-8-8-8-------|
D|-6-6-6-6------8-8-8-8-------|
A|-6-6-6-6------6-6-6-6-------|
E|-4-4-4-4--------------------|

we've got one last moment
e|-----------------------------|
B|-----------------------------|
G|---------------8-8-8-8-------|
D|-6-6-6-6-------8-8-8-8-------|
A|-6-6-6-6-------6-6-6-6-------|
E|-4-4-4-4---------------------|

to play our dreams out all alone yeah
e|---------------------------------------------|
B|---------------------------------------------|
G|--------------8-8-8-8------------------------|
D|-6-6-6-6------8-8-8-8-8--8--8--8-------------|
A|-6-6-6-6------6-6-6-6-8--8--8--8-------------|
E|-4-4-4-4--------------6--6--6--6-------------|

e|---------------------------|
B|---------------------------|
G|--------------8-8-8-8------|
D|-6-6-6-6------8-8-8-8------|
A|-6-6-6-6------6-6-6-6------|
E|-4-4-4-4-------------------|

e|----------------------------|
B|----------------------------|
G|-----------8-8-8-8----------|
D|-6-6-6-6---8-8-8-8----------|
A|-6-6-6-6---6-6-6-6----------|
E|-4-4-4-4--------------------|

e|-------------------------------|
B|-------------------------------|
G|--------------8-8-8-8----------|
D|-6-6-6-6------8-8-8-8----------|
A|-6-6-6-6------6-6-6-6----------|
E|-4-4-4-4-----------------------|

e|-------------------------------|
B|-------------------------------|
G|-6--6--6-6---------------------|
D|-6--6--6-6--6-6-6-6------------|
A|-4--4--4-4--6-6-6-6------------|
E|------------4-4-4-4------------|


e|-------------------------------|
B|-------------------------------|
G|-6--6--6-6---------------------|
D|-6--6--6-6--6-6-6-6------------|
A|-4--4--4-4--6-6-6-6------------|
E|------------4-4-4-4------------|


e|---------------------------------|
B|---------------------------------|
G|-----8--8--8-8-8-8---------------|
D|-----8--8--8-8-8-8---------------|
A|-----6--6--6-6-6-6---------------|
E|---------------------------------|



Добавлено: 09.11.2013
Другие материалы по этой песне:
  • Аккорды и текст

Страница создана 14.07.2012
http://primanota.ru/midnight-youth/start-saving-chords.htm
Привет, Гость.
Предлагаем пройти революционный курс по гитаре.
Подарок от PrimaNota.Ru, забирай!