PrimaNota.ru - самый крупный в мире бесплатный архив песенных текстов, аккордов, табулатур и нот


Midnight Youth - Learning To Fall - аккорды и текст, видео

Регистрация Запомнить меня
Войти через:  Facebook Google Twitter Vk Yandex Mail.ru

Midnight Youth - Learning To Fall - аккорды и текст, видео

Печатать
Просмотров: 91
Learning To Fall
Midnight Youth
Midnight Youth - Learning To Fall

Standard tuning :)

E:   022100
B:   224442
F#:  244322
G#m: 244222


E                      B       F#
I could say that it's time, to let you go
E          B             F#   
  I could say that, I'm moving on
E            B             F#      E                 B     F#
  Eighteen years was all I had to hold, against my heart

Interlude: 
   E          B         G#m        F#  
e--7-----6--|-2------4-|----------|---------|
B-----------|----------|-4--------|2--------|
G-----------|----------|----------|---------|  x2
D-----------|----------|----------|---------| 
A-----------|----------|----------|---------|
E-----------|----------|----------|---------|

                E                   B                   F#
I don't know if I can touch you, of if you're outta reach
                E                   B              F#
I don't know if I can see you, even if I get to leave
                E               B                    F#
I don't know if I'm on fire, or if you're made of sparks
                E                             B            F#
I don't know if I'm that secret, that you'd never want to part with...

Interlude: 
   E          B         G#m        F#  
e--7-----6--|-2------4-|----------|---------|
B-----------|----------|-4--------|2--------|
G-----------|----------|----------|---------|  x2
D-----------|----------|----------|---------|
A-----------|----------|----------|---------|
E-----------|----------|----------|---------|

                E                   B                   F#
I don't know if I can touch you, of if you're outta reach
                E                   B              F#
I don't know if I can see you, even if I get to leave
                E               B                    F#
I don't know if I'm on fire, or if you're made of sparks
                E                             B            F#
I don't know if I'm that secret, that you'd never want to part...

                  E                 B                  F#
Cos I just wanna fly, I just wanna take you by the hand
                E                        B              F#
Take you for a drive, show you how our life will never end
               E                   B         F#
(I just wanna fall) it's time for us, it's time to let us in
               E                   B         F#
(I just wanna fall) it's time for us, it's time to let us in
               E                   B         F#
(I just wanna fall) it's time for us, it's time to let us in
               E                     B      F#
(I just wanna fall) it's time for us, woah

   E          B          G#m        F#  
e--7-----6--|-2------4--|----------|---------|
B-----------|-----------|-4--------|2--------|
G-----------|-----------|----------|---------|  x2
D-----------|-----------|----------|---------|
A-----------|-----------|----------|---------|
E-----------|-----------|----------|---------|


   E          B         G#m        F#
e-----------|----------|----------|-14---11-|
B-----------|----------|-11----12-|---------|
G-----------|----------|----------|---------|  x6
D-----------|----------|----------|---------|
A-----------|----------|----------|---------|
E-----------|----------|----------|---------|

End on E

And that's it! Great New Zealand song, simple but brilliant.
Добавлено: 06.09.2013
Другие материалы по этой песне:
  • Аккорды и текст

Страница создана 06.09.2013
http://primanota.ru/midnight-youth/learning-to-fall-chords.htm
Привет, Гость.
Предлагаем пройти революционный курс по гитаре.
Подарок от PrimaNota.Ru, забирай!