PrimaNota.ru - самый крупный в мире бесплатный архив песенных текстов, аккордов, табулатур и нот


Midnight Oil - Who Can Stand in The Way - текст песни, бас-таба, видео

Регистрация Запомнить меня
Войти через:  Facebook Google Twitter Vk Yandex Mail.ru

Midnight Oil - Who Can Stand in The Way - текст песни, бас-таба, видео

Печатать
Просмотров: 102
Уроки эстрадного вокала в Санкт-Петербурге
WHO CAN STAND IN THE WAY?

Moginie/Garrett
Album : Red Sails in the Sunset
Bass : Peter Gifford

INTRO:
G |-------------------------|-------------------------|
D |-5-----------------------|-5-----------------------|
A |-------------------------|-------------------------|
E |-------------------------|-------------------------|

VERSE:
......Well oh well I feel I'm in decay
G |-----------------------------------|''''|---------------------------------|
D |*---------------------------------*|''''|---------------------------------|
A |*---------3-3---3-1-1---1---------*|{x7}|---------3-3---3-1-1---1-0-------|
E |--3-3---3-----------------1-1---1--|''''|-3-3---3-------------------------|

INTRO

.....Seem to live this life long distance
G |-----------------------------------|''''|---------------------------------|
D |*---------------------------------*|''''|---------------------------------|
A |*---------3-3---3-1-1---1---------*|{x3}|---------3-3---3-1-1---1-0-------|
E |--3-3---3-----------------1-1---1--|''''|-3-3---3-------------------------|

INTRO

G |-----------------2-------5-------|---|
D |---------3-----------------------|---|
A |-5-------------------------------|---|
E |---------------------------------|-3-|

G |---------------------------------|---------------------------------|''''
D |---------------------------------|---------------------------------|''''
A |---------3-3---3-1-1---1---------|---------3-3---3-1-1---1---------|
E |-3-3---3-----------------1-1---1-|-3-3---3-----------------1-1-----|
''''''''
...I was hanging around off Dobroyd Point
G |-----------------------------------|''''|---------------------------------|
D |*---------------------------------*|''''|---------------------------------|
A |*---------3-3---3-1-1---1---------*|{x3}|---------3-3---3-1-1---1-0-------|
E |--3-3---3-----------------1-1---1--|''''|-3-3---3-------------------------|

INTRO

.....Now choppers strafe the supermarket
G |-----------------------------------|''''|---------------------------------|
D |*---------------------------------*|''''|---------------------------------|
A |*---------3-3---3-1-1---1---------*|{x3}|---------3-3---3-1-1---1-0-------|
E |--3-3---3-----------------1-1---1--|''''|-3-3---3-------------------------|

INTRO

 ......If Christ were here
G |-----------------------------------|''''|---------------------------------|
D |*---------------------------------*|''''|---------------------------------|
A |*---------3-3---3-1-1---1---------*|{x3}|---------3-3---3-1-1---1-0-------|
E |--3-3---3-----------------1-1---1--|''''|-3-3---3-------------------------|

..........Just one thing
G |----------------------------------|---------------------------------|
D |*---------------------------------|--------------------------------*|
A |*---------------------------------|-3------------------------------*|
E |--1--------------5----------------|----------------3----------------|

G |-----------------2-------5-------|---|
D |---------3-----------------------|---|
A |-5-------------------------------|---|
E |---------------------------------|-3-|

G |---------------------------------|
D |---------------------------------|
A |---------3-3---3-1-1---1---------|
E |-3-3---3-----------------1-1-----|

G |----------------------------------|---------------------------------|
D |*---------------------------------|---------------------------------|
A |*---------3-3---3-1-1---1---------|---------3-3---3-1-1---1---------|
E |--3-3---3-----------------1-1---1-|-3-3---3-----------------1-1-----|

......Take precious moments
G |-------------------------|-------------------------|
D |-------------------------|-7-----------------------|
A |-------------------------|-------------------------|
E |-3-----------------------|-------------------------|

....you, it's a joy of forgetting
G |----------------------------------|----------------------------------|---|
D |*---------------------------------|---------------------------------*|---|
A |*---------------------------------|-3-------------------------------*|---|
E |--1---------------5---------------|-----------------3----------------|-0-|

Transcribed by Brian Camp
E-mail: cambrian@vianet.net.au
Добавлено: 26.10.2013
Другие материалы по этой песне:
  • Аккорды и текст

Страница создана 06.05.2012
http://primanota.ru/midnight-oil/who-can-stand-in-the-way-chords.htm
Привет, Гость.
Предлагаем пройти революционный курс по гитаре.
Подарок от PrimaNota.Ru, забирай!