PrimaNota.ru - самый крупный в мире бесплатный архив песенных текстов, аккордов, табулатур и нот


Midnight Oil - When The Generals Talk - текст песни, таба, бас-таба, видео

Регистрация Запомнить меня
Войти через:  Facebook Google Twitter Vk Yandex Mail.ru

Midnight Oil - When The Generals Talk - текст песни, таба, бас-таба, видео

Печатать
Просмотров: 160
Уроки эстрадного вокала в Санкт-Петербурге
Авторы музыки: Jim Moginie, Peter Gifford, Martin Rotsey, Peter Garrett, Rob Hirst
Авторы текста: Jim Moginie, Peter Gifford, Martin Rotsey, Peter Garrett, Rob Hirst
Midnight Oil
Red Sails in the Sunset
When The Generals Talk

Copyrighted © by Columbia Records, 1984
Version 1.0 October 1984

Tabbed by: Alexander Westers
infernal_purge@hotmail.com

Note:
\\ = slide down
~~ = vibrato


Bass opening:
|-------------|
|-------------|
|-------------|
|-----4--4--0-|

Riff 1':
|-----------------------|-----------------------------|
|-----------------------|-----------------------------|
|-----------------------|-----------------------------|
|-----------------------|-----------------------------|
|--------------5--7\\---|-----------------------------|
|-0-0-2--3--0-----------|-0-0-2--0-0-2--0-0-2--0-0-2--|

Riff 1:
|-----------------------|--------------------|
|-----------------------|--------------------|
|-----------------------|--------------------|
|-----------------------|--------------------|
|--------------5--7\\---|--------------5~~---|
|-0-0-2--3--0-----------|-0-0-2--3--0--------|


Chorus:
|-7~~--|-7~~--|
|-7~~--|-7~~--|
|-7~~--|-7~~--|
|-9~~--|-9~~--|
|------|------|
|------|------|

Riff 1”:
|-----------------------|--------------------|
|-----------------------|--------------------|
|-----------------------|--------------------|
|--------------7--9\\---|--------------7~~---|
|-2-2-4--5--2-----------|-2-2-4--5--2--------|
|-----------------------|--------------------|


Riff 2:                         
|--------------------|-------------------|
|--------0------0----|------0-3------3-1-|
|------1------1---/2-|----1--------1-----|
|--0-3------2--------|--3--------2-------|
|--------------------|---------|---------|
|--------------------|---------|---------|
                               *
* = Third time, riff stops here



Song structure:

Riff 1'
Riff 1 (3x)

Chorus (2x)

Riff 1”

Chorus (2x)

Riff 2 (3x)

Riff 1
Riff 1'
Riff 1 (3x)

Chorus (2x)

Riff 1
Riff 1 (first half)
Riff 1
Добавлено: 18.04.2012
Другие материалы по этой песне:
  • Аккорды и текст

Страница создана 18.04.2012
http://primanota.ru/midnight-oil/when-the-generals-talk-chords.htm
Привет, Гость.
Предлагаем пройти революционный курс по гитаре.
Подарок от PrimaNota.Ru, забирай!