PrimaNota.ru - самый крупный в мире бесплатный архив песенных текстов, аккордов, табулатур и нот


Midnight Oil - Stars of Warburton - текст песни, бас-таба, видео

Регистрация Запомнить меня
Войти через:  Facebook Google Twitter Vk Yandex Mail.ru

Midnight Oil - Stars of Warburton - текст песни, бас-таба, видео

Печатать
Просмотров: 113
STARS OF WARBURTON

Moginie/Garrett
Album : Blue Sky Mining
Bass : Bones Hillman

VERSE:
G |---|----------------------------------|---------------------------------|
D |---|*---------------------------------|---------------------------------|
A |---|*---------------------------------|---------------------------------|
E |-5-|--7-7-5-7---7---5-7-7-5-7---7---5-|-7-7-5-7---7---5-7-7-5-7---7---5-|

G |---------------------------------|----------------------------------|
D |---------------------------------|---------------------------------*|
A |---------------------------------|---------------------------------*| x3
E |-7-7-5-7---7---5-7-7-7-5---2-4---|-4-4---4-4-4-4-4-2-2-2-2-5-5-5-5--|

BRIDGE:
G |---------------------------------|
D |---------------------------------|
A |-6-6-6-7---9---0-2-2-2-0---2-----|
E |---------------------------------|

Speaker is speaking can you hear the sound
G |-----------------------------------|---------------------------------|
D |*---------------------------------*|---------------------------------|
A |*-----------------7-7-7-7-7-7-7-7-*|---------------------------------|
E |--0-0-0-0-0-0-0-0------------------|-0-0-0-0-0-0-0-0-4---------------|

CHORUS:
....I - I - I - I - couldn't believe
G |---------------------------------|---------------------------------|
D |---------------------------------|---------------------------------|
A |---------------------------------|-----------------------1---1-1---|
E |-4-----4-0-0-0-0-4-4-4-2---2-2--2|/4-4-4---0---0-0-4-4-4-----------|

G |---------------------------------|---------------------------------|
D |---------------------------------|---------------------------------|
A |---------2-2-2-2-2-2-2-1---1-1---|---------------------------------|
E |-4-----4-------------------------|-4-4-4---0-0-0---4-4-4---5-5-5-5-|

PRE-VERSE:
G |---------------------------------|---------------------------------|
D |---------------------------------|-----------------------------7---|
A |---------------------------------|-----------------6-6-6-7---9-----|
E |-7-7-5-7---7---5-7-7-5-7---7---5-|-7-7-5-7---7---7---------------5-|

VERSE 2:
We were dancing
G |---------------------------------|---------------------------------|
D |---------------------------------|---------------------------------|
A |---------------------------------|---------------------------------|
E |-7-7-5-7---7---5-7-7-5-7---7---5-|-7-7-5-7---7---5-7-7-7-5---2-4---|

G |---------------------------------|---------------------------------|
D |---------------------------------|-----------------------------7---|
A |---------------------------------|-----------------6-6-6-7---9-----|
E |-4-4---4-4-4-4-4-2-2-2-2-5-5-5-5-|-7-7-5-7---7---7---------------5-|

We got our pipe dreams
G |---------------------------------|---------------------------------|
D |---------------------------------|---------------------------------|
A |---------------------------------|---------------------------------|
E |-7-7-5-7---7---5-7-7-5-7---7---5-|-7-7-5-7---7---5-7-7-7-5---2-4---|

G |---------------------------------|---------------------------------|
D |---------------------------------|---------------------------------|
A |---------------------------------|---------------------------------|
E |-4-4---4-4-4-4-4-2-2-2-2-5-5-5-5-|-7-7-5-7---7---5-7-7-5-7---7---5-|

Don't wanna talk about Elvis Presley
G |---------------------------------|---------------------------------|
D |---------------------------------|---------------------------------|
A |---------------------------------|---------------------------------|
E |-7-7-5-7---7---5-7-7-5-7---7---5-|-7-7-5-7---7---5-7-7-7-5---2-4---|

G |---------------------------------|
D |---------------------------------|
A |---------------------------------|
E |-4-4---4-4-4-4-4-2-2-2-2-5-5-5-5-|

BRIDGE

CHORUS

MIDDLE:
Over the hills and mountains
G |----------------------------------|----------------------------------|
D |*---------------------------------|---------------------------------*|
A |*-5-5-5-5-5-5-5-5-5-5-5-5-2---2-2-|-0-0-0---2-2-2-------------------*| x2
E |----------------------------------|-----------------2-2-2---5-5-5----|

G |---------------------------------|---------------------------------|
D |-1-1-1-1-2-2-2-2-----------------|---------------------------------|
A |-----------------4-4-4-2---2-2---|---------------------------------|
E |---------------------------------|-2-2-2---5-5-5---0-0-0---2-2-2---|

G |---------------------------------|---------------------------------|
D |-1-1-1-1-2-2-2-2-----------------|---------------------------------|
A |-----------------4-4-4-2---2-2---|---------------------------------|
E |---------------------------------|-2-2-2---5-5-5---0-0-0-0-0-0-0-0-|

G |---------------------------------|-----------------|
D |---------------------------------|-----------------|
A |-----------------7---------------|-----------------|
E |-0-0-0-0-0-0-0-0-----------------|-----------------|

END CHORUS:
G |---------------------------------|---------------------------------|
D |---------------------------------|---------------------------------|
A |---------------------------------|-----------------------1---1-1---|
E |-----4---0-0-0-0-4-4-4-2---2-2--2|/4-4-4---0---0-0-4-4-4-----------|

G |---------------------------------|---------------------------------|
D |---------------------------------|-----------------------2/6-6-4---|
A |---------2-2-2-2-2-2-2-1---1-1---|-------------------------------4-|
E |-4-----4-------------------------|-4-4-4---0-0-0---4-4-4-----------|

G |---------------------------------|---------------------------------|
D |---------------------------------|---------------------------------|
A |---------------------------------|-----------------------1---1-1---|
E |-4-----4-0-0-0-0-4-4-4-2---2-2--2|/4-4-4---0---0-0-4-4-4-----------|

G |---------------------------------|---------------------------------|
D |---------------------4-----------|---------------------------------|
A |---------2-2-2-2-2-4---4---4-4---|---------------------------------|
E |-4-----4-------------------------|-4-4-4---0-0-0---4-4-4---5-5-5---|

G |---------------------------------|---------------------------------|
D |---------------------------------|---------------------------------|
A |---------------------------------|-----------------------1---1-1---|
E |-4-----4-0-0-0-0-4-4-4-2---2-2--2|/4-4-4---0---0-0-4-4-4-----------|

G |---------------------------------|---------------------------------|
D |---------------------------------|---------------------------------|
A |---------2-2-2-2-2-2-2-1---1-1---|---------------------------------|
E |-4-----4-------------------------|-4-4-4---0-0-0---4-4-4---5-5-5---|

OUTRO:
G |---------------------------------|---------------------7-9---7-----|
D |---------------------------------|-----------------0-0-----------9-|
A |-0---------------2---------------|---------------------------------|
E |---------------------------------|-3-------------------------------|

G |-2---------------4-------------2-|-0--------------/7-7-7-7-7-7-7-7-|
D |---------------------------------|---------------------------------|
A |---------------------------------|---------------------------------|
E |---------------------------------|---------------------------------|

G |---------------------------------|---------------------------------|
D |-7---------\---------------------|---------------------------------|
A |---------------0-2---------------|----------------/5-5-5-5-5-5-5-5-|
E |-------------------------------3-|---3-3---3-3---------------------|

(Repeat to fade)
G |----------------------------------|----------------------------------|
D |*---------------------------------|---------------------------------*|
A |*-0---------------2---------------|----------------/5-5-5-5-5-5-5-5-*|
E |----------------------------------|-3--------------------------------|

Transcribed by Brian Camp
E-mail: cambrian@vianet.net.au
Добавлено: 27.10.2013
Другие материалы по этой песне:
  • Аккорды и текст

Страница создана 09.06.2012
http://primanota.ru/midnight-oil/stars-of-warburton-chords.htm
Привет, Гость.
Предлагаем пройти революционный курс по гитаре.
Подарок от PrimaNota.Ru, забирай!