PrimaNota.ru - самый крупный в мире бесплатный архив песенных текстов, аккордов, табулатур и нот


Midnight Oil - Outside World - текст песни, бас-таба, видео

Регистрация Запомнить меня
Войти через:  Facebook Google Twitter Vk Yandex Mail.ru

Midnight Oil - Outside World - текст песни, бас-таба, видео

Печатать
Просмотров: 100
OUTSIDE WORLD

Moginie
Album : 10,9,8,7,6,5,4,3,2,1
Bass : Peter Gifford

INTRO/OUTRO:
G |---------------------------------|---------------------------------|
D |---------------------------------|---------------------------------|
A |-----------------4-4-4-4-4-4-4-4-|---------------------------------|
E |-0-0-0-0-0-0-0-0-----------------|-5-5-5-5-5-5-5-5-4-4-4-4-4-4-4-4-|

G |---------------------------------|-----------------|
D |---------------------------------|-----------------|
A |---------------------------------|-----------------|
E |-3-3-3-3-3-3-3-3-2-2-2-2-2-2-2-2-|-1-1-1-1-1-1-1-1-|

G |----------------------------------|---------------------------------|
D |*---------------------------------|---------------------------------|
A |*-4-4-4-4-4-4-4-4-----------------|---------------------------------|
E |------------------5-5-5-5-5-5-5-5-|-4-4-4-4-4-4-4-4-3-3-3-3-3-3-3-3-|

G |----------------------------------|
D |---------------------------------*|
A |---------------------------------*|
E |-2-2-2-2-2-2-2-2-1-1-1-1-1-1-1-1--|

G |---------------------------------|---------------------------------|
D |---------------------------------|---------------------------------|
A |-4-4-4-4-4-4-4-4-----------------|---------------------------------|
E |-----------------5-5-5-5-5-5-5-5-|-4-4-4-4-4-4-4-4-3-3-3-3-3-3-3-3-|

G |---------------------------------|-----------------|
D |---------------------------------|-----------------|
A |---------------------------------|-----------------|
E |-2-2-2-2-2-2-2-2-1-1-1-1-1-1-1-1-|-1-1-1-1-1-1-1-1-|

VERSE:
There's a wind on the eastern side
G |---------------------------------|---------------------------------|
D |---------------------------------|---------------------------------|
A |---------------------------------|---------------------------------|
E |-1-1-1-1-1-1-1-1-1-1-1-1-1-1-1-1-|-3-3-3-3-3-3-3-3-3-3-3-3-3-3-3-3-|

G |---------------------------------|-----------------|
D |---------------------------------|-----------------|
A |---------------------------------|-----------------|
E |-4-4-4-4-4-4-4-4-4-4-4-4-4-4-4-4-|-6-6-6-6-8-8-8-8-|

G |---------------------------------|---------------------------------|
D |---------------------------------|---------------------------------|
A |---------------------------------|---------------------------------|
E |-1-1-1-1-1-1-1-1-1-1-1-1-1-1-1-1-|-3-3-3-3-3-3-3-3-3-3-3-3-3-3-3-3-|

G |---------------------------------|-----------------|
D |---------------------------------|-----------------|
A |---------------------------------|-----------------|
E |-4-4-4-4-4-4-4-4-4-4-4-4-4-4-4-4-|-4-4-4-4-4-4-4-4-|

CHORUS:
I can see the outside world
G |---------------------------------|---------------------------------|
D |---------------------------------|---------------------------------|
A |---------------------------------|---------------------------------|
E |-5-5-5-5-5-5-5-5-5-5-5-5-5-5-5-5-|-5-5-5-5-5-5-5-5-5-5-5-5-5-5-5-5-|

G |---------------------------------|-------------------------|
D |---------------------------------|-------------------------|
A |-------------------------3-3-3-3-|-------------------------|
E |-5-5-5-5-5-5-5-5-5-5-5-5---------|-5-5-5-5-5-5-5-5-5-5-5-5-|

OTHER PART:
G |---------------------------------|---------------------------------|
D |---------------------------------|---------------------------------|
A |-2-2-2-2-2-2-2-2-----------------|---------7-7-7-7-7-7-7-7-7-7-7-7-|
E |-----------------4-4-4-4-4-4-4-4-|-4-4-4-4-------------------------|

G |---------------------------------|---------------------------------|
D |---------------------------------|---------------------------------|
A |-3-3-3-3-3-3-3-3-3-3-3-3-5-5-5-5-|-5-5-5-5-5-5-5-5-----------------|
E |---------------------------------|-----------------4-4-4-4-4-4-4-4-|

G |---------------------------------|---------------------------------|
D |---------------------------------|---------------------------------|
A |-7-7-7-7-7-7-7-7-7-7-7-7-3-3-3-3-|-3-3-3-3-3-3-3-3-3-3-3-3-3-3-3-3-|
E |---------------------------------|---------------------------------|

VERSE 2:
It's the summer of another year
G |---------------------------------|---------------------------------|
D |---------------------------------|---------------------------------|
A |---------------------------------|---------------------------------|
E |-1-1-1-1-1-1-1-1-1-1-1-1-1-1-1-1-|-1-1-1-1-3-3-3-3-3-3-3-3-3-3-3-3-|

G |---------------------------------|---------------------------------|
D |---------------------------------|---------------------------------|
A |---------------------------------|---------------------------------|
E |-3-3-3-3-3-3-3-3-4-4-4-4-4-4-4-4-|-4-4-4-4-4-4-4-4-6-6-6-6-8-8-8-8-|

G |---------------------------------|---------------------------------|
D |---------------------------------|---------------------------------|
A |---------------------------------|---------------------------------|
E |-1-1-1-1-1-1-1-1-1-1-1-1-1-1-1-1-|-3-3-3-3-3-3-3-3-3-3-3-3-3-3-3-3-|

G |---------------------------------|-----------------|
D |---------------------------------|-----------------|
A |---------------------------------|-----------------|
E |-4-4-4-4-4-4-4-4-4-4-4-4-4-4-4-4-|-4-4-4-4-4-4-4-4-|

Play CHORUS

Play OTHER PART (play 'D' instead of 'B' notes) A |-5-5-5-5-5-5-5-5-

Play INTRO/OUTRO 

Transcribed by Brian Camp
E-mail: cambrian@vianet.net.au
Добавлено: 12.09.2013
Другие материалы по этой песне:
  • Аккорды и текст

Страница создана 19.03.2012
http://primanota.ru/midnight-oil/outside-world-chords.htm
Привет, Гость.
Предлагаем пройти революционный курс по гитаре.
Подарок от PrimaNota.Ru, забирай!