PrimaNota.ru - самый крупный в мире бесплатный архив песенных текстов, аккордов, табулатур и нот


Midnight Oil - No Reaction - текст песни, бас-таба, видео

Регистрация Запомнить меня
Войти через:  Facebook Google Twitter Vk Yandex Mail.ru

Midnight Oil - No Reaction - текст песни, бас-таба, видео

Печатать
Просмотров: 91
Авторы музыки: Jim Moginie, Martin Rotsey, Rob Hirst

NO REACTION

Hirst/Moginie/Rotsey
Album : Head Injuries
Bass : Andrew James

INTRO:
G |---------------------------------|---------------------------------|
D |---------------------------------|---------------------------------|
A |-----------------------------7---|-----------------------------7---|
E |-0-0-0-0-0-0-0-0-0-0-0-0-0-0-----|-0-0-0-0-0-0-0-0-0-0-0-0-0-0-----|

G |---------------------------------|---------------------------------|
D |---------------------------------|---------------------------------|
A |-----------3---4-4-4-4---3-3-3---|-----------3---4-4-4-4---3-3-3---|
E |-0-0-12\-0-----------------------|-0-0-12\-0-----------------------|

VERSE:
What do we want
G |---------------------------------|---------------------------------|
D |-----------------------------5-6-|-7-7-7-7-7-7-7-7-7-7-7-7-7-7-----|
A |-7-7-7-7-7-7-7-7-7-7-7-7-7-7-----|-----------------------------5-6-|
E |---------------------------------|---------------------------------|

Who do we hear
G |---------------------------------|---------------------------------|
D |-----------------------------5-6-|-7-7-7-7-7-7-7-7---------0-2-5-3-|
A |-7-7-7-7-7-7-7-7-7-7-7-7-7-7-----|-------------------0-2-3---------|
E |---------------------------------|---------------------------------|

CHORUS:
No Reaction................We haven't heard a word
G |---------------------------------|---------------------------------|
D |-3-3-3-3---5---------------------|-5-5-5-5---3-----------------0-2-|
A |---------------5-5-5-5-5---5-5---|---------------0-0-0-0-0-0-0-----|
E |---------------------------------|---------------------------------|

You're almost but not quite more than we deserve
G |---------------------------------|---------------------------------|
D |-3-3-3-3---5---------------------|---------------------------------|
A |---------------5-5-5-5-5---5-5-3-|---------------------------------|
E |---------------------------------|-1-1-1-1-1-1-1-1-1-1-1-1-1-1-1-1-|

VERSE

CHORUS 2:
G |---------------------------------|---------------------------------|
D |-3-3-3-3---5---------------------|-5-5-5-5---3-----------------0-2-|
A |---------------5-5-5-5-5---5-5---|---------------0-0-0-0-0-0-0-----|
E |---------------------------------|---------------------------------|

G |---------------------------------|---------------------------------|
D |-3-3-3-3---5---------------------|---------------------------------|
A |---------------5-5-5-5-5---5-5-3-|---------------------------------|
E |---------------------------------|-1-1-1-1-1-1-1-1-1-1-1-1-1-1-1-1-|

G |-------------------------------|
D |-3-3-3-3-3-3-3-3-3-3-3-3---3-5-|
A |-------------------------------|
E |-------------------------------|

INTERLUDE:
G |-2-------------------------------|---------------------------------|
D |---------------------------------|---------------------------------|
A |---------------------------0-2-3-|-0-------------------------0-2-3-|
E |---------------------------------|---------------------------------|

G |---------------------------------|---------------------------------|
D |-2-------------------------------|---5-----4-----------------------|
A |---------------------------0-2-3-|---------------------------0-2-3-|
E |---------------------------------|---------------------------------|

G |---------------------------------|---------------------------------|
D |---------------------------------|---------------------------------|
A |-0-------------------------0-2-3-|-0-------------------------0-2-3-|
E |---------------------------------|---------------------------------|

G |---------------------------------|---------------------------------|
D |-2-------------------------------|---2-2-2-2-2-----------3-2-0-----|
A |---------------------------0-2-3-|---------------3-3-3-3-------3-2-|
E |---------------------------------|---------------------------------|

HARMONICA SOLO:
G |---------------------------------|---------------------------------|
D |---------------------------------|---------------------------------|
A |---------------------------------|-----------------------------7\--|
E |-0-------------------------------|---------------------------------|

VERSE 3:
G |----------------------------------|----------------------------------|
D |*-----------------------------5-6-|-7-7-7-7-7-7-7-7-7-7-7-7-7-7-7-7-*|
A |*-7-7-7-7-7-7-7-7-7-7-7-7-7-7-----|---------------------------------*|
E |----------------------------------|----------------------------------|

What do we want...Who do we hear.....Where do we go and What do we do?
G |---------------------------------|---------------------------------|
D |---------------------------------|---------------------------------|
A |-7-7-7-7-7-7-7-7-7-7-7-7-7-7-7-7-|-0-0-0-0-0-0-0-0-0-0-0-0-0-0-0-0-|
E |---------------------------------|---------------------------------|

G |----------------------------/9---|---------------------------------|
D |---------------------------------|---------------------------------|
A |-7-7-7-7-7-7-7-7-7-7-7-7-7-7-----|-0-0-0-0-0-0-0-0-0-0-0-0-0-0-0-0-|
E |---------------------------------|---------------------------------|

CHORUS 1

END CHORUS:
G |---------------------------------|---------------------------------|
D |-3-3-3-3---5---------------------|-5-5-5-5---3-----------------2-2-|
A |---------------5-5-5-5-5---5-5---|---------------0-0-0-2-2-3-3-----|
E |---------------------------------|---------------------------------|

G |---------------------------------|---------------------------------|
D |-3-3-3-3---5---------------------|---------------------------------|
A |---------------5-5-5-5-5---5-5-3-|---------------------------------|
E |---------------------------------|-1-1-1-1-1-1-1-1-1-1-1-1-1-1-1-1-|

G |-------------------------------|
D |-3-3-3-3-3-3-3-3-3-3-3-3-3-3-5-|
A |-------------------------------|
E |-------------------------------|

OUTRO:
G |-2-------------------------------|---------------------------------|
D |---------------------------------|---------------------------------|
A |---------------------------0-2-3-|-0-------------------------0-2-3-|
E |---------------------------------|---------------------------------|

G |---------------------------------|---------------------------------|---|
D |-2-------------------------------|---2-2-2-2-2-----------3-2-0-----|---|
A |---------------------------0-2-3-|---------------3-3-3-3-------3-2-|---|
E |---------------------------------|---------------------------------|-0-|

Transcribed by Brian Camp
E-mail: cambrian@vianet.net.au
Добавлено: 10.08.2013
Другие материалы по этой песне:
  • Аккорды и текст

Страница создана 07.03.2012
http://primanota.ru/midnight-oil/no-reaction-chords.htm
Привет, Гость.
Предлагаем пройти революционный курс по гитаре.
Подарок от PrimaNota.Ru, забирай!