PrimaNota.ru - самый крупный в мире бесплатный архив песенных текстов, аккордов, табулатур и нот


Midnight Oil - Naked Flame - текст песни, бас-таба, видео

Регистрация Запомнить меня
Войти через:  Facebook Google Twitter Vk Yandex Mail.ru

Midnight Oil - Naked Flame - текст песни, бас-таба, видео

Печатать
Просмотров: 102
Авторы музыки: Jim Moginie, Martin Rotsey, Rob Hirst

NAKED FLAME

Rotsey/Hirst/Moginie
Album : Head Injuries
Bass : Andrew James

INTRO/CHORUS:
G |---------------|
D |-----------2-4-|
A |-----2-3-5-----|
E |-3-5-----------|

G |---------------------------------|---------------------------------|
D |-2-------------0-2-----------0---|-2-------------0-2-----------2---|
A |---------2---------------2-------|---------2---------------2-------|
E |---------------------------------|---------------------------------|

G |---------------------------------|---------------------------------|
D |---------------------------------|---------------------------------|
A |-5-------0-----3-5-------0---3---|-5-------0-----3-5-----------0-2-|
E |---------------------------------|-----------------------0-2-3-----|

VERSE:
G |----3---------------3-------------|---3------------------------------|
D |*-----0-1---------0---0-1---------|-----0-1-----------3-------------*|
A |*-3-------------------------------|-3-------------------0-1---------*| x3
E |----------------------------------|-----------------3----------------|

G |---3---------------3-------------|---3-----------------------------|
D |-----0-1---------0---0-1---------|-----0-1-----------5---------2-4-|
A |-3-------------------------------|-3-------------------0-2-3-5-----|
E |---------------------------------|---------------------------------|

CHORUS:
G |---------------------------------|---------------------------------|
D |-2-------------0-2-----------0---|-2-------------0-2-----------2---|
A |---------2---------------2-------|---------2---------------2-------|
E |---------------------------------|---------------------------------|

G |---------------------------------|---------------------------------|
D |---------------------------------|-----------------------------5---|
A |-5-------0-----3-5-------0---3---|-5-------0-----3-5-------0-------|
E |---------------------------------|---------------------------------|

G |---------------------------------|---------------------------------|
D |-2-------------0-2-----------0---|-2-------------0-2-----------2---|
A |---------2---------------2-------|---------2---------------2-------|
E |---------------------------------|---------------------------------|

G |---------------------------------|---------------------------------|
D |---------------------------------|---------------------------------|
A |-5-------0-----3-5-------0---3---|-5-------0-----3-5-----------0-2-|
E |---------------------------------|-----------------------0-2-3-----|

VERSE/OTHER PART:
G |---3---------------3-------------|---3-----------------------------|
D |-----0-1---------0---0-1---------|-----0-1-----------3-------------|
A |-3-------------------------------|-3-------------------0-1---------|
E |---------------------------------|-----------------3---------------|

G |---3---------------3-------------|---3-------------------5---------|
D |-----0-1---------0---0-1---------|-----0-1-------------7-----------|
A |-3-------------------------------|-3-----------------8-------------|
E |---------------------------------|---------------------------------|

G |-------6---------------5---------|-------7---------------5---------|
D |-----9---------------7-----------|-----5---------------7-----------|
A |---9---------------8-------------|---7---------------8-------------|
E |---------------------------------|---------------------------------|

G |-------6-------------------------|-----------------|
D |-----9---------------------------|-----------------|
A |---9-----------------------------|-----------------|
E |-----------------1---------------|-----------------|

CHORUS:
G |---------------------------------|---------------------------------|
D |-2-------------0-2-----------0---|-2-------------0-2-----------2---|
A |-------------2-----------2-------|-------------2-----------2-------|
E |---------------------------------|---------------------------------|

G |---------------------------------|---------------------------------|
D |---------------------------------|-----------------------------5---|
A |-5-----------0-3-5-------0---3---|-5-----------0-3-5-------0-------|
E |---------------------------------|---------------------------------|

G |---------------------------------|---------------------------------|
D |-2-------------0-2-----------0---|-2-------------0-2-----------2---|
A |-------------2-----------2-------|-------------2-----------2-------|
E |---------------------------------|---------------------------------|

OTHER PART/OUTRO:
G |-------5---------------6---------|-------5----------------7--------|
D |-----7---------------9-----------|-----7----------------5----------|
A |---8---------------9-------------|---8----------------7------------|
E |---------------------------------|---------------------------------|

G |-------5---------------6---------|---------------------------------|
D |-----7---------------9-----------|---------------------------------|
A |---8---------------9-------------|-0-------------------------------|
E |---------------------------------|---------------------------------|

G |---------------------------------|---|
D |---------------------------------|---|
A |-3-------------------------------|---|
E |---------------------------------|-0-|

Transcribed by Brian Camp
E-mail: cambrian@vianet.net.au
Добавлено: 27.02.2014
Другие материалы по этой песне:
  • Аккорды и текст

Страница создана 29.04.2012
http://primanota.ru/midnight-oil/naked-flame-chords.htm
Привет, Гость.
Предлагаем пройти революционный курс по гитаре.
Подарок от PrimaNota.Ru, забирай!