PrimaNota.ru - самый крупный в мире бесплатный архив песенных текстов, аккордов, табулатур и нот


Midnight Oil - Maralinga - текст песни, таба, бас-таба, видео

Регистрация Запомнить меня
Войти через:  Facebook Google Twitter Vk Yandex Mail.ru

Midnight Oil - Maralinga - текст песни, таба, бас-таба, видео

Печатать
Просмотров: 96
-------------------------------------------------------------------------------
                             MARALINGA - Midnight Oil
-------------------------------------------------------------------------------
Tabbed by: wilburine


Tuning: Standard
First tab, here goes :)

INTRO/CHORUS
Guitar 1

e|---------------------------------------------------------------------------|
B|---------------------------------------------------------------------------|
G|---------------------------------------------------------------------------|
D|---------------------------------------------------------------------------|
A|-----0-1-2-3-----------0-1-3-----0-2-3-2---3p2-0---------------------------|
E|-3~-----------0------3---------------------------3-------------------------|

Guitar 2 (play it all staccato)
e|-3-3-3-3-3-3-3-3-0-0-0-0-0-0-0-0-2-2-2-2-2-2-2-2-0-0-0-0-0-0-0-0-----------|
B|-3-3-3-3-3-3-3-3-1-1-1-1-1-1-1-1-3-3-3-3-3-3-3-3-1-1-1-1-1-1-1-1-----------|
G|---------------------------------------------------------------------------|
D|---------------------------------------------------------------------------|
A|---------------------------------------------------------------------------|
E|---------------------------------------------------------------------------|

VERSE
Guitar 1 (no Guitar 2)
e|-------3-------------------------------------------------------------------|
B|-------3----------------------------5--------------------------------------|
G|-------0----------------------------5--------------------------------------|
D|--0---------------------------5--------------------------------------------|
A|--x---------------------------3--------------------------------------------|
E|--3------------------------------------------------------------------------|

e|---------------------------------------------------------------------------|
B|----------7---------------------------5------------------------------------|
G|----------7---------------------------5------------------------------------|
D|----7--------------------------5-------------------------------------------|
A|----5--------------------------3-------------------------------------------|
E|---------------------------------------------------------------------------|

PRE-CHORUS(And if you can't see the smile in me...)
Guitar 2 (Guitar 1 continue verse figure)
Slight palm mute----------------------------------                                 
e|----------3--------------3---------------5--------------------------------|
B|-----------------------5---5-----------7--7-------------------------------|
G|-------0----0--------5-------5-------7------7-----------------------------|
D|-----0--------0----5-----------5---7----------7---------------5\----------|
A|---2-----------0-3---------------5----------------------------5\----------|
E|-3------------------------------------------------------------3\----------|



More to come
************************************

| /   slide up
| \   slide down
| h   hammer-on
| p   pull-off
| ~   vibrato
| +   harmonic
| x   Mute note
| b   Bend
| pb  Pre-bend
| br  Bend release
| pbr Pre-bend release
| brb Bend release bend

************************************
Добавлено: 09.01.2014
Другие материалы по этой песне:
  • Аккорды и текст

Страница создана 30.06.2012
http://primanota.ru/midnight-oil/maralinga-chords.htm
Привет, Гость.
Предлагаем пройти революционный курс по гитаре.
Подарок от PrimaNota.Ru, забирай!