PrimaNota.ru - самый крупный в мире бесплатный архив песенных текстов, аккордов, табулатур и нот


Midnight Oil - Is It Now - текст песни, бас-таба, видео

Регистрация Запомнить меня
Войти через:  Facebook Google Twitter Vk Yandex Mail.ru

Midnight Oil - Is It Now - текст песни, бас-таба, видео

Печатать
Просмотров: 91
Авторы музыки: Jim Moginie, Peter Garrett

IS IT NOW?

Moginie/Garrett
Album : Head Injuries
Bass : Andrew James

INTRO:
G |---------------------------------|---------------------------------|
D |---------------------------------|---------------------------------|
A |---------------------------------|---------------------------------|
E |-0-0-0-0-0-0-0-2-3-3-3-3-3-3-3-2-|-0-0-0-0-0-0-0-0-1-1-1-1-1-1-1-1-|

G |---------------------------------|---------------------------------|
D |---------------------------------|-3-3-3-3-3-3-2-2-0-----2---0-4---|
A |-3-3-3-3-3-3-3-2-0-0-0-0-2---2-2-|---------------------------------|
E |---------------------------------|---------------------------------|

G |---------------------------------|---------------------------------|
D |---------------------------------|---------------------------------|
A |---------------------------------|-----------------------------0-2-|
E |-0-0-0-0-0-0-0-2-3-3-3-3-3-3-3-2-|-0-0-0-0-0-0-0-0-1-1-1-1-1-1-----|

G |---------------------------------|---------------------------------|
D |---------------------------------|-3-3-3-3-3-3-2-2-0-----2---0-4---|
A |-3-3-3-3-3-3-3-2-0-0-0-0-2---2-2-|---------------------------------|
E |---------------------------------|---------------------------------|

VERSE:
..........There's a man who walks
G |---------------------------------|---------------------------------|
D |---------------------------------|---------------------------------|
A |---------------5-7-7-7-7-7-7-7-7-|-9-9-9-9-9-9-9-------------------|
E |-7-7-7-7-7-7-7-------------------|---------------7-5-5---5---5---5-|

G |---------------------------------|---------------------------------|
D |---------------------------------|---------------------------------|
A |---------------5-7-7-7-7-7-7-7-7-|-9-9-9-9-9-9-9-9-----------------|
E |-7-7-7-7-7-7-7-------------------|-----------------5-5---5---5---5-|

G |---------------------------------|---------------------------------|
D |---------------------------------|---------------------------------|
A |-2-2-2-2-2-2-2-2-----------------|---------------------------------|
E |-----------------0-0-0-0-0-0-0-0-|-2-2-2-2-2-2-2-2-5-5-5-5-5-5-5-5-|

He stalks the open road that leads from here to there
G |---------------------------------|---------------------------------|
D |---------------------------------|-----------------2-2-2-2-2-2-2-2-|
A |-2-2-2-2-2-2-2-2-4-4-4-4-4-4-4-4-|-5-5-5-5-5-5-5-------------------|
E |---------------------------------|---------------------------------|

...........................................You'd better look out beware
G |---------------------------------|---------------------------------|
D |-4-4-4-4-4-4-4-------------------|---------------------------------|
A |---------------5-7-7-7-7-4-4-4-4-|-5-5-5-5-5-5-5-5-5-5-5-5-5-5-5-5-|
E |---------------------------------|---------------------------------|

............................There's no safety here
G |---------------------------------|---------------------------------|
D |-4-4-4-4-4-4-4-------------------|---------------------------------|
A |---------------5-7---7-7-4---4---|---------------------------------|
E |---------------------------------|-5-5-5-5-5-5-5-5-5-5-5-5-5-5-5-5-|

G |---------------------------------|
D |-----------------2-2-2-2---------|
A |-------------------------4---4---|
E |-2-2-2-2-2-2-2-2-----------------|

Crouched by the fence...............Sweat dries cold
G |-----------------5-5-5-5---5-5---|-5-5-5-5-5-5-5---5---------------|
D |---------------------------------|---------------------------------|
A |-3-3-3-3---3-3-------------------|-----------------------0-3---5---|
E |---------------------------------|---------------------------------|

PRE-VERSE 2:
G |---------------------------------|---------------------------------|
D |---------------------------------|---------------------------------|
A |---------------------------------|-----------------------------0-2-|
E |-0-0-0-0-0-0-0-2-3-3-3-3-3-3-3-2-|-0-0-0-0-0-0-0-0-1-1-1-1-1-1-----|

G |---------------------------------|---------------------------------|
D |---------------------------------|-3-3-3-3-3-3-2-2-0-----2---0-4---|
A |-3-3-3-3-3-3-3-2-0-0-0-0-2---2-2-|---------------------------------|
E |---------------------------------|---------------------------------|

VERSE 2:
Where is the saviour
G |---------------------------------|---------------------------------|
D |---------------------------------|---------------------------------|
A |---------------5-7-7-7-7-7-7-7-7-|-9-9-9-9-9-9-9-------------------|
E |-7-7-7-7-7-7-7-------------------|---------------7-5-5-5-5-5-5-5-5-|

He's telling jokes
G |---------------------------------|---------------------------------|
D |---------------------------------|-4-4-4-4-4-4-4--/7-7-7-7-7-7-7---|
A |---------------5-7-7-7-7-7-7-7-7-|---------------------------------|
E |-7-7-7-7-7-7-7-------------------|---------------------------------|

Be warned
G |---------------------------------|---------------------------------|
D |---------------------------------|---------------------------------|
A |-2-2-2-2-2-2-2-2-----------------|---------------------------------|
E |-----------------0-0-0-0-0-0-0-0-|-2-2-2-2-2-2-2-2-5-5-5-5-5-5-5-5-|

When you hesitate
G |---------------------------------|---------------------------------|
D |---------------------------------|-----------------2-2-2-2-2-2-2-2-|
A |-2-2-2-2-2-2-2-2-4-4-4-4-4-4-4-4-|-5-5-5-5-5-5-5-------------------|
E |---------------------------------|---------------------------------|

...........................................You'd better look out beware
G |---------------------------------|---------------------------------|
D |-4---4-4-4-4-4-------------------|-----------------------------2-/-|
A |---------------5-7---7-7-4-4-4---|-5-5-5-5-5-5-5-5-5-5-5-5-5-5-----|
E |---------------------------------|---------------------------------|

...........................There's no safety here
G |---------------------------------|---------------------------------|
D |-4-4-4-4-4-4-4-4-----------------|---------------------------------|
A |-----------------7-7-7---4-4-----|---------------------------------|
E |-------------------------------7-|-5-5-5-5-5-5-5-5-5-5-5-5-5-5-5-\-|

G |---------------------------------|
D |-----------------2-2-2-----------|
A |-------------------------4-4-4---|
E |-2---2-2-2-2-2-2-----------------|

Crouched by the fence...............Sweat dries cold
G |-----------------5-5-5-5---5-5---|-5-5-5-5-5-5-5-5-5-5-5-5-5-5-5-5-|
D |---------------------------------|---------------------------------|
A |-3-3-3-3---3-3-------------------|---------------------------------|
E |---------------------------------|---------------------------------|

His eyes they turn red
G |-5-5-5-5-5-5-5-5-5-5-5-5-5-5-5-5-|-5-5-5-5-5-5-5-5-5-5-5-----------|
D |---------------------------------|---------------------------------|
A |---------------------------------|-----------------------0-3---5---|
E |---------------------------------|---------------------------------|

PRE-VERSE 2

RANT:
He puts a name to every face
G |----------------------------------|----------------------------------|
D |*---------------------------------|-----------------2-2-2-2-2-2-2---*|
A |*-2-2-2-2-2-2-2-2-4-4-4-4-4-4-4-4-|-5-5-5-5-5-5-5-5-----------------*|
E |----------------------------------|----------------------------------|

G |---------------------------------|---------------------------------|
D |---------------------------------|-----------------2-2-2-------2---|
A |-2-2-2-2-2-2-2-2-4-4-4-4-4-4-4-4-|-5-5-5-5-5-5-5-5---------5-5-----|
E |---------------------------------|---------------------------------|

CLIMAX:
Is it Now?
G |-----------------------------------|
D |*---------------------------------*|
A |*---------------------------------*|
E |--2-2-2----------------------------|

OUTRO:
G |---------------------------------|---------------------------------|
D |---------------------------------|---------------------------------|
A |---------------------------------|---------------------------------|
E |-2-2-2-2-2-2-2-2-2-2-2-2-2-2-2-2-|-2-2-2-2-2-2-2-2-2-2-2-2-2-2-2-2-|

G |---------------------------------|---------------------------------|
D |---------------------------------|---------------------------------|
A |---------------------------------|---------------------------------|
E |-3-3-3-3-3-3-3-5-6-6-6-6-6-6-6-5-|-3-3-3-3-3-3-3-3-4-4-4-4-4-4-4-4-|

G |---------------------------------|-----------------------------2---|
D |---------------------------------|-6-6-6-6-6-6-6-5-3-3-3-5---5-----|
A |-6-6-6-6-6-6-6-5-3-3-3-3-5-5-5-5-|---------------------------------|
E |---------------------------------|---------------------------------|

G |---------------------------------|---------------------------------|
D |---------------------------------|---------------------------------|
A |-----------------7-7-7-7-7-7-7-7-|-9-9-9-9-9-9-9-------------------|
E |-7-7-7-7-7-7-7-7-----------------|---------------7-5-5-5-5-5-5-5-5-|

G |---------------------------------|---------------------------------|
D |---------------------------------|---------------------------------|
A |---------------5-7-7-7-7-7-7-7-7-|-9-9-9-9-9---5-------------------|
E |-7-7-7-7-7-7-7-------------------|-----------5---7-5-5-5-5-5-5-5-5-|

G |---------------------------------|---------------------------------|
D |---------------------------------|---------------------------------|
A |-2-2-2-2-2-2-2-2-----------------|---------------------------------|
E |-----------------0-0-0-0-0-0-0-0-|-2-2-2-2-2-2-2-2-5-5-5-5-5-5-5-5-|

G |---------------------------------|---------------------------------|
D |---------------------------------|-----------------2-2-2-2-2---2---|
A |-2-2-2-2-2-2-2-2-4-4-4-4-4-4-4-4-|-5-5-5-5-5-5-5-5-----------2-----|
E |---------------------------------|---------------------------------|

G |---------------------------------|---------------------------------|
D |---------------------------------|-4-4-4-4-4-4-4-4-----------------|
A |-----------------7-7-7-7-7-7-7-7-|---------------------------------|
E |-7-7-7-7-7-7-7-7-----------------|-----------------5-5-5-5-5-5-5-5-|

G |---------------------------------|---------------------------------|
D |---------------------------------|---------------------------------|
A |-2-2-2-2-2-2-2-2-----------------|---------------------------------|
E |-----------------0-0-0-0-0-0-0-0-|-2-2-2-2-2-2-2-2-5-5-5-5-5-5-5-5-|

G |---------------------------------|---------------------------------|
D |---------------------------------|-4---4-4-4-4-4--/7-7-7-7-7-7-7---|
A |-----------------7-7-7-7-7-7-7---|---------------------------------|
E |-7-7-7-7-7-7-7-------------------|---------------------------------|

G |---------------------------------|---------------------------------|
D |---------------------------------|---------------------------------|
A |-2-2-2-2-2-2-2-2-----------------|---------------------------------|
E |-----------------0-0-0-0-0-0-0-0-|-2-2-2-2-2-2-2-2-5-5-5-5-5-5-5-5-|

G |---------------------------------|---------------------------------|
D |---------------------------------|-----------------2-2-2-2-2-2-2-2-|
A |-2-2-2-2-2-2-2-2-4-4-4-4-4-4-4-4-|-5-5-5-5-5-5-5-5-----------------|
E |---------------------------------|---------------------------------|

G |---------------------------------|---------------------------------|
D |---------------------------------|-4-4-4-4-4-4-4-4/7-7-7-7-7-7-7-7-|
A |-----------------7-7-7-7-7-7-7-7-|---------------------------------|
E |-7-7-7-7-7-7-7-7-----------------|---------------------------------|

G |-----------------------------------|------------------/9---------------|
D |-9-9-9-9-9-9-9-9-7/9-9-9-9-9-9-9-9-|-7/9-9-9-9-9-9-9-9-----------------|
A |-----------------------------------|---------------------0-0-0-0-0-0-0-|
E |-----------------------------------|-----------------------------------|

G |---------------------------------|---------------------------------|
D |---------------------------------|---------------------------------|
A |-2-2-2-2-2-2-2-2-----------------|---------------------------------|
E |-----------------0-0-0-0-0-0-0-0-|-2-2-2-2-2-2-2-2-5-5-5-5-5-5-5-5-|

Transcribed by Brian Camp
E-mail: cambrian@vianet.net.au
Добавлено: 12.11.2013
Другие материалы по этой песне:
  • Аккорды и текст

Страница создана 12.05.2012
http://primanota.ru/midnight-oil/is-it-now--chords.htm
Привет, Гость.
Предлагаем пройти революционный курс по гитаре.
Подарок от PrimaNota.Ru, забирай!