PrimaNota.ru - самый крупный в мире бесплатный архив песенных текстов, аккордов, табулатур и нот


Midnight Oil - Head Over Heels - текст песни, бас-таба, видео

Регистрация Запомнить меня
Войти через:  Facebook Google Twitter Vk Yandex Mail.ru

Midnight Oil - Head Over Heels - текст песни, бас-таба, видео

Печатать
Просмотров: 92
HEAD OVER HEELS

Hirst/Rotsey/Moginie
Album : Midnight Oil
Bass : Andrew James

INTRO:
(Part 1)
G |---------------------------------|---------------------------------|
D |-------2---2-2-0-------2---2-2---|---------------------------------|
A |-2---------------2---------------|-2-----5---5-5---4-----/-9-9-9-9-|
E |---------------------------------|---------------------------------|

G |---------------------------------|-------------------4---2-----2-3-|
D |-------2---2-2-0-------2---2-2---|-------4---4-4---4---4-----4-----|
A |-2---------------2---------------|-2-------------------------------|
E |---------------------------------|---------------------------------|

G |---------------------------------|---------------------------------|
D |-------2---2-2-0-------2---2-2---|---------------------------------|
A |-2---------------2---------------|-2-----5---5-5---4-----/-9-9-9-9-|
E |---------------------------------|---------------------------------|

G |---------------------------------|-------------------4---2---------|
D |-------2---0-2-0-------2---2-2---|-------4---4-4-4-4---4---------66|
A |-2---------------2---------------|-2-------------------------------|
E |---------------------------------|---------------------------------|

(Part 2)
G |---------------------------------|---------------------------------|
D |-7-----------5-667-----------5-66|-7-----------5-667-------------66|
A |---------------------------------|---------------------------------|
E |-----5-3-5-5---------5-3-5-5-----|-----5-3-5-5---------5-3-5-------|

G |---------------------------------|---------------------------------|
D |-7-----------5-667-----------5-66|-7-----------5-667---------------|
A |---------------------------------|---------------------------------|
E |-----5-3-5-5---------5-3-5-5-----|-----5-3-5-5---------5-3-5-3-3---|

VERSE:
G |-----9------7777---777----7------|---------------------------------|
D |-7777----5-5----4-4---5-5--------|-----------------667-------------|
A |---------------------------------|---------------------------------|
E |---------------------------------|-5-----5---5-----------5---5-5---|

G |-----9-------7-------7-------7---|---------------------------------|
D |-7-------5-------4-------5-5-----|-----------------667-------------|
A |---------------------------------|---------------------------------|
E |---------------------------------|-5-----5---5-----------5---5-5---|

CHORUS:
I think I like the sound we're chasing
G |---------------------------------|---------------------------------|
D |---------------------------------|---------------------------------|
A |-----------------2-------2-3-2---|-3------/7-7-7-7-7-7-7-7-7-7-7-7-|
E |-0-------3-----------------------|---------------------------------|

I'm giving it all and you're reciprocating
G |---------------------------------|---------------------------------|
D |---------------------------------|---------------------------------|
A |-5-------3-------3-------0-------|-2-2-2-2-2-2-2-2-2-2-2-2-2-2-2-2-|
E |---------------------------------|---------------------------------|

INTRO Part 2

VERSE

CHORUS

It just don't add up this summer fever
G |---------------------------------|---------7-7-7-7-7-7-7-----------|
D |-------5-7-----7-5---------------|-5---------------------0-4-5-6-7-|
A |-5-------------------------------|---------------------------------|
E |---------------------------------|---------------------------------|

Stories flying love is dying
G |---------------------------------|---------------------------------|
D |-7-----7-7-------5-----5-5-------|---------------------------------|
A |---------------------------------|-0---------------------------7\--|
E |---------------------------------|---------0-----------------------|

G |---------------------------------|---------------------------------|
D |---------------------------------|---------------------------------|
A |-0-----5---5-5-3-0-----5---3-5-3-|-0-----3---3-3---2------/7-7-7-7-|
E |---------------------------------|---------------------------------|

G |---------------------------------|---------------------------------|
D |-----------------------------4-5-|-------------------7---5-----5-6-|
A |-0-----5---5-5-3-0-----5---------|-0------/7-7-7---7---7-----7-----|
E |---------------------------------|---------------------------------|

G |---------------------------------|---------------------------------|
D |---------------------------------|---------------------------------|
A |-0-----5---5-5-3-0-----5---3-5-3-|-0-----3---3-3---2------/7-7-7-7-|
E |---------------------------------|---------------------------------|

G |---------------------------------|---------------------------------|
D |-----------------------------4-5-|-------------------7---5---------|
A |-0-----5---5-5---0-----5---------|-0------/7-7-7---7---7-----------|
E |---------------------------------|---------------------------------|

KEYBOARD/ORGAN PART:
I'm head over heels in love
G |------9999----7777----7777----7777--|
D |*-7-------5-------4-------5--------*|
A |*----------------------------------*| x16
E |------------------------------------|

GUITAR SOLO:
G |--5-5-------------------------4-2--|
D |*-----------------0-0-2-2-4-4-----*|
A |*---------------------------------*| x4
E |------0-0-2-2-3-3------------------|

I think I like the sound we're chasing
G |---------------------------------|---------------------------------|
D |---------------------------------|---------------------------------|
A |-----------------2-------2-3-2---|-3------/7-7-7-7-7-7-7-7-7-7-7-7-|
E |-0-------3-----------------------|---------------------------------|

G |---------------------------------|---------------------------------|
D |---------------------------------|---------------------------------|
A |-5-------3-3-----3-------0-0-----|-2-2-2-2-2-2-2-2-2-2-2-2-2-2-2-2-|
E |---------------------------------|---------------------------------|

G |-9-------7-7-----7---------------|---------------------------------|
D |---------------------------------|---------------------------------|
A |-------------------------0-0-----|-2----/7-7-7-7-7-7-7-------------|
E |---------------------------------|---------------------0/////////7-|

G |-9-------7-7-----7---------------|---------------------------------|
D |---------------------------------|---------------------------------|
A |-------------------------0-0-----|-2--/7-7-7-7-7-7-7-7-7-7-7-7-7-7-|
E |---------------------------------|---------------------------------|

OUTRO:
G |-4-2-----------------------------|
D |-----4-2-5-4-0---5-4-0-2---------|
A |---------------3-----------------|
E |---------------------------------|

Transcribed by Brian Camp
E-mail: cambrian@vianet.net.au
Добавлено: 20.12.2013
Другие материалы по этой песне:
  • Аккорды и текст

Страница создана 10.07.2012
http://primanota.ru/midnight-oil/head-over-heels-chords.htm
Привет, Гость.
Предлагаем пройти революционный курс по гитаре.
Подарок от PrimaNota.Ru, забирай!