PrimaNota.ru - самый крупный в мире бесплатный архив песенных текстов, аккордов, табулатур и нот


Midnight Oil - Harrisburg - текст песни, бас-таба, видео

Регистрация Запомнить меня
Войти через:  Facebook Google Twitter Vk Yandex Mail.ru

Midnight Oil - Harrisburg - текст песни, бас-таба, видео

Печатать
Просмотров: 94
HARRISBURG

Moginie/Kevans
Album : Red Sails in the Sunset
Bass : Peter Gifford

INTRO:
G |----------------5/8-------7--------|--------------------------------|
D |*---------------------------------*|--------------------------------|
A |*-3-------------------------------*|-6-------5-------4-------3------|
E |-----------------------------------|--------------------------------|

G |---------------------------------|-----------------|
D |---------------------------------|---------1-1-1-1-|
A |\1-------------------------------|-3-3-3-3---------|
E |---------5-------3---------------|-----------------|

VERSE:
......................................The empire rings
G |-----------------------------------|-------------------------4-4-4-4--|
D |*---------------------------------*|*-4-4-4-4-6-6-6-6-7-7-7-7--------*|
A |*-------------------------2-2-2-2-*|*--------------------------------*| x3
E |--2-2-2-2-4-4-4-4-5-5-5-5----------|----------------------------------|

You cannot get it out..............It's stuff you cannot taste or see
G |-6-6-6-6-6-6-6-6-----------------|--------------------------4-4-4-4--|
D |---------------------------------|*-4-4-4-4-6-6-6-6-7-7-7-7---------*|
A |-----------------4-4-4-4-4-4-4-4-|*---------------------------------*| x4
E |---------------------------------|-----------------------------------|

CHORUS:
Harrisburg oh Harrisburg
G |-----------------------------------|--------------------------------|
D |*---------------------------------*|--------------------------------|
A |*-3-------------/6-------5--------*|-6-------5-------4-------3------|
E |-----------------------------------|--------------------------------|

G |---------------------------------|---------5-5-5---|
D |-8-------7---------------5-5-5-5-|-----------------|
A |-----------------3-3-3-3---------|-3-3-3-----------|
E |---------------------------------|-----------------|

PRE-VERSE 2:
G |---------------------------------|-----------------6-6-6-6-6-6-6-6-|
D |---------------------------------|---------------------------------|
A |-------------------------2-2-2-2-|-4-4-4-4-4-----------------------|
E |-2-2-2-2-4-4-4-4-5-5-5-5---------|---------------------------------|

VERSE 2:
The company said it would not blow
G |---------------------------------|---------------------------------|
D |---------------------------------|---------------------------------|
A |-------------------------2-2-2---|-------------------------4-5-4-4-|
E |-2-2-2-2-4-4-4-4-5-5-5-5---------|-2-2-2-2-4-4-4-4-5-5-5-5---------|

G |---------------------------------|-6-6-6-6-6---6-------------------|
D |---------------------------------|---------------------------------|
A |-------------------------2-2-2-2-|-----------------4-4-4-4-4-4-4-4-|
E |-2-2-2-2-4-4-4-4-5-5-5-5---------|---------------------------------|

G |-----------------------------------|
D |*---------------------------------*|
A |*-------------------------2-2-2-2-*| x3
E |--2-2-2-2-4-4-4-4-5-5-5-5----------|

G |-------------------------4-4-4---|
D |-4-4-4-4-6-6-6-6-7-7-7-7---------|
A |---------------------------------|
E |---------------------------------|

CHORUS:
G |---------------------------------|---------------------------------|
D |---------------------------------|---------------------------------|
A |-3--------------/6-------5-------|-3--------------/6-------1-------|
E |---------------------------------|---------------------------1\----|

G |---------------------------------|---------------------------------|
D |---------------------------------|-8-------7---------------5-5-5-5-|
A |-6-------5-------4-------3-------|-----------------3-3-3-3---------|
E |---------------------------------|---------------------------------|

G |---------5-5-5-5-|
D |-----------------|
A |-3-3-3-3---------|
E |-----------------|

OUTRO:
G |-------0-5-0-0---4-0-----4-0-454-|-------4-5-4-5-7-4-0-----4-------|
D |---------------------3-5---------|---------------------3-5---------|
A |---------------------------------|---------------------------------|
E |---------------------------------|---------------------------------|

Transcribed by Brian Camp
E-mail: cambrian@vianet.net.au
Добавлено: 31.12.2013
Другие материалы по этой песне:
  • Аккорды и текст

Страница создана 04.04.2012
http://primanota.ru/midnight-oil/harrisburg-chords.htm
Привет, Гость.
Предлагаем пройти революционный курс по гитаре.
Подарок от PrimaNota.Ru, забирай!