PrimaNota.ru - самый крупный в мире бесплатный архив песенных текстов, аккордов, табулатур и нот


Midnight Oil - Gravelrash - текст песни, бас-таба, видео

Регистрация Запомнить меня
Войти через:  Facebook Google Twitter Vk Yandex Mail.ru

Midnight Oil - Gravelrash - текст песни, бас-таба, видео

Печатать
Просмотров: 90
GRAVELRASH

Midnight Oil
Album : Breathe
Bass : Bones Hillman

PART 1:
G |---------------------------------|---------------------------------|
D |---------------------------------|---------------------------------|
A |---------------------------------|---------------------------------|
E |-2-4-5---4-2-4-4---0---2---------|-2-4-5---4-2-4-4---5-------------|

G |---------------------------------|---------------------------------|
D |---------------------------------|---------------------------------|
A |---------------------------------|---------------0---5-------------|
E |-2-4-5---4-2-4-4---0---2---------|-3-2-0---0-2-3-------------------|

PART 2:
G |---------------------------------|---------------------------------|
D |---------------------------------|---------------------------------|
A |-5---5---5-------5--0----0-------|---------------------------------|
E |---------------------------------|-0-1-0-1---1-1---2---3-3-3-3-3-3-|

G |---------------------------------|---------------------------------|
D |---------------------------------|---------------------------------|
A |-7-5-----------------------------|---------------------------------|
E |-----7---7-7-7-7---5-3-5---5-5---|-1---1-----0-1-0-1-3-3-----------|

PART 3:
G |---------------------------------|---------------------------------|
D |---------------------------------|---------------------------------|
A |-7-7-7---0-0-0---3-3---5---5-5-5-|-7---7---0---0---3-3---5---5-5-5-|
E |---------------------------------|---------------------------------|

Transcribed by Brian Camp
E-mail: cambrian@vianet.net.au
Добавлено: 12.11.2013
Другие материалы по этой песне:
  • Аккорды и текст

Страница создана 07.04.2012
http://primanota.ru/midnight-oil/gravelrash-chords.htm
Привет, Гость.
Предлагаем пройти революционный курс по гитаре.
Подарок от PrimaNota.Ru, забирай!