PrimaNota.ru - самый крупный в мире бесплатный архив песенных текстов, аккордов, табулатур и нот


Midnight Oil - Feeding Frenzy - текст песни, бас-таба, видео

Регистрация Запомнить меня
Войти через:  Facebook Google Twitter Vk Yandex Mail.ru

Midnight Oil - Feeding Frenzy - текст песни, бас-таба, видео

Печатать
Просмотров: 135
FEEDING FRENZY

Moginie/Garrett
Album : Earth and Sun and Moon
Bass : Bones Hillman

VERSE:
G |-----------------------------------|
D |-----------------------------------|
A |-------------2/5h7-----------------|
E |-0---0-0-3-0-------0---0-0-3-0-5-3-|

CHORUS:
I don't wanna run and hide
G |---------------------------------|---------------------------------|
D |---------------5---5---7---7-7---|---------------------------------|
A |-7-7-7-5---5---------------------|-7-7-7-5---5---------------------|
E |---------------------------------|---------------3---3---5---5-5-5-|

Truth and fiction must collide
G |---------------------------------|-------------------|
D |---------------------------------|-------------------|
A |-3-3-3-5---5---------------------|-2---2-2-3---3-3-3-|
E |---------------3---3-3-5---5-5---|-------------------|

God knows
G |----------------------------------|----------------------------------|
D |----------------------------------|------------------------4/5\4-4-2-|
A |-----------2-0---2-2-2--2/3\2-2-0-|-----------2-0---2-2-2------------|
E |-2-2-0-2--------------------------|-2-2-0-2--------------------------|

G |----------------------------------|----|
D |----------------------------------|----|
A |-----------2-0---2-2-2--2/3\2-2---|-7\-|
E |-2-2-0-2--------------------------|----|

OTHER PART/OUTRO:
G |---------------------------------|---------------------------------|
D |---------------------------------|---------------------------------|
A |-----------------------3---3-5-5-|-----------------------3---3-5-5-|
E |-0-------3-----5-----------------|-0-------3-----5-----5-----------|

G |---------------------------------|---------------------------------|
D |---------------------------------|---------------------------------|
A |-----------------------3---3-5-5-|-7---7-7-5-5-5-4---4-4-3---3/10--|
E |-0-------3-----5-----5-----------|---------------------------------|

Transcribed by Brian Camp
E-mail: cambrian@vianet.net.au
Добавлено: 09.01.2014
Другие материалы по этой песне:
  • Аккорды и текст

Страница создана 06.06.2012
http://primanota.ru/midnight-oil/feeding-frenzy-chords.htm
Привет, Гость.
Предлагаем пройти революционный курс по гитаре.
Подарок от PrimaNota.Ru, забирай!