PrimaNota.ru - самый крупный в мире бесплатный архив песенных текстов, аккордов, табулатур и нот


Midnight Oil - Dust - текст песни, бас-таба, видео

Регистрация Запомнить меня
Войти через:  Facebook Google Twitter Vk Yandex Mail.ru

Midnight Oil - Dust - текст песни, бас-таба, видео

Печатать
Просмотров: 113
DUST

Moginie/Garrett/Hirst
Album : Midnight Oil
Bass : Andrew James

INTRO:
G |--------------------------|--------------------------|
D |*-------------------------|-2-2-2-2-2-2-4-4-4-4-4-4-*|
A |*-2-2-2-2-2-2-4-4-4-4-4-4-|-------------------------*|
E |--------------------------|--------------------------|

G |-------------------------|-------------------------|
D |-------------------------|-2-2-2-2-2-2-4-4-4---5---|
A |-2-2-2-2-2-2-4-4-4-4-4-4-|-------------------------|
E |-------------------------|-------------------------|

VERSE:
G |--------------------------|--------------------------|
D |*-------------------------|---------1-2-4-----------*|
A |*---------------------2-3-|-4-444-4-----------------*| x8
E |--4-----0-2-3-4-444-4-----|-------------------0-2-3--|

G |-8-6-----------------------------|-1-------------------------------|
D |-----8-7-6-----------------------|---4-1-0-------------------------|
A |---------------------------------|---------4-----------------------|
E |-----------9-8-7-----------------|-----------2-1-0-----------------|

VERSE 2:
G |--------------------------|--------------------------|
D |*-------------------------|---------1-2-4-----------*|
A |*---------------------2-3-|-4-444-4-----------------*| x5
E |--4-----0-2-3-4-444-4-----|-------------------0-2-3--|

G |--------------------------|-----3-2---------5-4------|
D |*-------------------------|---3-----3-----5-----5-0-*|
A |*---------------------2-3-|-1---------3-3-----------*|
E |--4-----0-2-3-4-444-4-----|--------------------------|

G |-8-6-----------------------------|-1-------------------------------|
D |-----8-7-6-----------------------|---4-1-0-------------------------|
A |---------------------------------|---------4-----------------------|
E |-----------9-8-7-----------------|-----------2-1-0-----------------|

INTERLUDE/GUITAR SOLO:
G |--------------------------|--------------------------|
D |*-------------------------|---------1-2-4-----------*|
A |*---------------------2-3-|-4-444-4-----------------*| x8
E |--4-----0-2-3-4-444-4-----|-------------------0-2-3--|

VERSE 3:
G |-------------------------|-------------------------|
D |-------------------------|---------1-2-4-----------|
A |---------------------2-3-|-4-444-4-----------------|
E |-4-----0-2-3-4-444-4-----|-------------------0-2-3-|

G |-------------------------|-------------------------|
D |-------------------------|-------------4-----------|
A |-------------------------|-4-----------------------|
E |-4-----------4-----------|-------------------0-2-3-|

G |--------------------------|--------------------------|
D |*-------------------------|---------1-2-4-----------*|
A |*---------------------2-3-|-4-444-4-----------------*| x5
E |--4-----0-2-3-4-444-4-----|-------------------0-2-3--|

G |-8-6-----------------------------|-1-------------------------------|
D |-----8-7-6-----------------------|---4-1-0-------------------------|
A |---------------------------------|---------4-----------------------|
E |-----------9-8-7-----------------|-----------2-1-0-----------------|

OUTRO:
G |--------------------------|--------------------------|
D |*-------------------------|-2-2-2-2-2-2-4-4-4-4-4-4-*|
A |*-2-2-2-2-2-2-4-4-4-4-4-4-|-------------------------*|
E |--------------------------|--------------------------|

G |-------------------------|-------------------------|---|
D |-------------------------|-2-2-2-2-2-2-4-4-4-------|---|
A |-2-2-2-2-2-2-4-4-4-4-4-4-|-------------------------|---|
E |-------------------------|-------------------0-2-3-|-4-|

Transcribed by Brian Camp
E-mail: cambrian@vianet.net.au
Добавлено: 23.11.2013
Другие материалы по этой песне:
  • Аккорды и текст

Страница создана 24.03.2012
http://primanota.ru/midnight-oil/dust-chords.htm
Привет, Гость.
Предлагаем пройти революционный курс по гитаре.
Подарок от PrimaNota.Ru, забирай!