PrimaNota.ru - самый крупный в мире бесплатный архив песенных текстов, аккордов, табулатур и нот


Midnight Oil - Don't Wanna be The One - текст песни, бас-таба, видео

Регистрация Запомнить меня
Войти через:  Facebook Google Twitter Vk Yandex Mail.ru

Midnight Oil - Don't Wanna be The One - текст песни, бас-таба, видео

Печатать
Просмотров: 156
Уроки эстрадного вокала в Санкт-Петербурге
Авторы музыки: Jim Moginie, Peter Gifford, Martin Rotsey, Peter Garrett, Rob Hirst
Авторы текста: Jim Moginie, Peter Gifford, Martin Rotsey, Peter Garrett, Rob Hirst
DON'T WANNA BE THE ONE

Hirst/Garrett/Rotsey/Moginie
Album : Place without a Postcard
Bass : Peter Gifford

INTRO:
G |----------------------------------|----------------------------------|
D |*---------------------------------|---------------------------------*|
A |*-1-1-1-1-1-1-1-1-4-4-4-4-4-4-4-4-|---------------------------------*| x3
E |----------------------------------|-5-5-5-5-5-5-5-1-1-1-1-1-1-1-1-1--|

G |---------------------------------|---------------------------------|
D |---------------------------------|---------------------------------|
A |-1-1-1-1-1-1-1-1-4-4-4-4-4-4-4-4-|---------------------------------|
E |---------------------------------|-5-5-5-5-5-5-5-1-1-1-1-1-1-1-1-0-|

VERSE:
I'm an innocent victim
G |---------------------------------|---------------------------------|
D |---------------------------------|---------------------------------|
A |---------------------------------|-1---1---------------------------|
E |-1---------------4-4-4-----------|---------------------------------|

G |---------------------------------|-------------------0-5-0-3-0-2-0-|
D |---------------------------------|---------------------------------|
A |---------------------------------|-1---1---------------------------|
E |-1---1-----------4---4-----------|---------------------------------|

CHORUS:
And I don't wanna be the one
G |---------------------------------|---------------------------------|
D |---------------------------------|---------------------------------|
A |---------------------------------|-6-6-6-6-6-6-6-3---3-3-3-3-3-3-3-|
E |-1-1-1-1-1-1-1-1-4-4-4-4-4-4-4-4-|---------------------------------|

G |---------------------------------|---------------------------------|
D |---------------------------------|---------------------------------|
A |---------------------------------|-6-6-6-6-6-6-6-3---3-3-3-3-3/8---|
E |-1-1-1-1-1-1-1-1-4-4-4-4-4-4-4-4-|---------------------------------|

VERSE 2:
G |---------------------------------|-------------------0-5-0---------|
D |---------------------------------|---------------------------------|
A |---------------------------------|-1---1---------------------------|
E |-1---1-----------4---4-----------|---------------------------------|

G |---------------------------------|-------------------0-5-0-3-0-2-0-|
D |---------------------------------|---------------------------------|
A |---------------------------------|-1---1---------------------------|
E |-1---1-----------4---4-----------|---------------------------------|

CHORUS 2:
G |----------------------------------|----------------------------------|
D |*---------------------------------|---------------------------------*|
A |*---------------------------------|-6-6-6-6-6-6-6-3---3-3-3-3-3-3-3-*|
E |--1-1-1-1-1-1-1-1-4-4-4-4-4-4-4-4-|----------------------------------|

MIDDLE:
G |---------------------------------|---------------------------------|
D |---------------------------------|---------------------------------|
A |---------------------------------|-3-3-3-3-3-3-3-3-3-3-2-2-0-------|
E |-0-0-0-0-0-0-0-0-0-0-0-0-0-0-0-0-|-----------------------------3---|

G |---------------------------------|---------------------------------|
D |---------------------------------|---------------------------------|
A |-------------------------3-3-2---|-3-3-3-3-3-3-3-3-3-3-2-2-0-------|
E |-0-0-0-0-0-0-0-0-0-0-0-0-------0-|-----------------------------3---|

INTRO:
Do do do do
G |---------------------------------|---------------------------------|
D |---------------------------------|---------------------------------|
A |-1-1-1-1-1-1-1-1-4-4-4-4-4-4-4-4-|---------------------------------|
E |---------------------------------|-5-5-5-5-5-5-5-1-1-1-1-1-1-1-1-1-|

G |---------------------------------|---------------------------------|
D |---------------------------------|---------------------------------|
A |-1-1-1-1-1-1-1-1-4-4-4-4-4-4-4-4-|-0-0-0-0-0-0-0/8---8-8-8-8-8-8-8-|
E |---------------------------------|---------------------------------|

G |---------------------------------|--------------/7---7---5---4---2-|
D |---------------3---3-3-3-3-3-3-3-|---------------------------------|
A |-1-1-1-1-1-1-1-------------------|-5-5-5-5-5-5-5-------------------|
E |---------------------------------|---------------------------------|

G |---------------------------------|---------------------------------|
D |---------------------------------|-----------------3---3-3-3-3-3-3-|
A |-0-0-0-0-0-0-2-3---3-3-3-3-3-3-3-|-6---6-6-6-6-6-6-----------------|
E |---------------------------------|---------------------------------|

END CHORUS:
G |---------------------------------|---------------0---0-5-0-3-0-2-0-|
D |---------------------------------|---------------------------------|
A |---------------------3---1---0---|-6-6-6-6-6-----------------------|
E |-1-1-1---------3---3---3---3---3-|---------------------------------|

G |---------------------------------|---------------0---0-5-0-3-0-2-0-|
D |---------------------------------|-----4---------------------------|
A |---------------------3---1---0---|-6-6---6-------------------------|
E |-1-1-1-1-1-----3---3---3---3---3-|---------------------------------|

G |---------------------------------|---------------------------------|
D |-3-3-3-3-3-3-3-3-6-6-6-6-6-6-6-6-|---------------------------------|
A |---------------------------------|-6-6-6-6-6-6-6-6-3-3-3-3-3-3-3-3-|
E |---------------------------------|---------------------------------|

G |---------------------------------|---------------------------------|
D |---------------------------------|---------------------------------|
A |---------------------------------|-6-6-6-6-6-6-6-6-3-3-3-3-3-3-3-3-|
E |-1-1-1-1-1-1-1-1-4-4-4-4-4-4-4-4-|---------------------------------|

G |---------------------------------|---------------------------------|
D |---------------------------------|---------------------------------|
A |---------------------------------|-7-------------------------------|
E |-0-------------------------------|---------------------------------|

G |---------------------------------|---------------------------------|
D |---------------------------------|---------------------------------|
A |-7-------------------------------|-------------------7-------------|
E |---------------------------------|---------------------------------|

G |---------------------------------|---------------------------------|
D |---------------------------------|---------------------------------|
A |---------------------------------|---------------------------------|
E |-0-0---0-0-0-0---0-0---0-0-0-0---|-0-0---0---0-0---0-0---0-0-0-3---|

G |---------------------------------|---------------------------------|
D |---------------------------------|-5-----5-----4-----2-----0---2---|
A |---------------------------------|---------------------------------|
E |-0-0---0---0-0---0-0---0-0-0-0---|---------------------------------|

OUTRO:
I don't wanna be the o-o-o-n-n-e-e
G |---------------------------------|---------------------------------|
D |-------------------------5-5-0---|---------------------------------|
A |---------------------------------|---------------------------------|
E |-0-0-0-0-0-0-0-0-0-0-0-0---------|-0-0-0-0-0-0-0-0-0-0-0-0-5---6---|

G |---------------------------------|---------------------------------|---|
D |---------------------------------|---------------------------------|---|
A |-------------------------5-------|-7-------------------------------|---|
E |-7-7-7-7-7-7-7-7-7-7-7-7-----7---|---------------------------------|-0-|

Transcribed by Brian Camp
E-mail: cambrian@vianet.net.au
Добавлено: 30.10.2013
Другие материалы по этой песне:
  • Аккорды и текст

Страница создана 11.07.2012
http://primanota.ru/midnight-oil/dont-wanna-be-the-one-chords.htm
Привет, Гость.
Предлагаем пройти революционный курс по гитаре.
Подарок от PrimaNota.Ru, забирай!