PrimaNota.ru - самый крупный в мире бесплатный архив песенных текстов, аккордов, табулатур и нот


Midnight Oil - Cold Cold Change - текст песни, бас-таба, видео

Регистрация Запомнить меня
Войти через:  Facebook Google Twitter Vk Yandex Mail.ru

Midnight Oil - Cold Cold Change - текст песни, бас-таба, видео

Печатать
Просмотров: 97
Авторы музыки: Jim Moginie, Rob Hirst

COLD COLD CHANGE

Hirst/Moginie
Album : Head Injuries
Bass : Andrew James

INTRO:
G |---------------------------------|---------------------------------|
D |---------------------------------|---------------------------------|
A |-2-2-2-2-2-2-2-0---2-2-2-2-2-2-0-|---2-2-2-2-2-2-2-2-0-0-0-5-5-5-4-|
E |---------------------------------|---------------------------------|

G |---------------------------------|---------------------------------|
D |---------------------------------|---------------------------------|
A |-2-2-2-2-2-2-2-0---2-2-2-2-2-2-2-|-3-3-3-2-3-3-3-2-3-2-0-5-----0-1-|
E |---------------------------------|---------------------------2-----|

G |---------------------------------|---------------------------------|
D |---------------------------------|---------------------------------|
A |-2-2-2-2-2-2-2-2-2-2-2-2-2-2-2-2-|-2-2-2-2-2-2-2-2/14-0-0-0-5-5-5-4|
E |---------------------------------|---------------------------------|

G |---------------------------------|---------------------------------|
D |---------------------------------|---------------------------------|
A |-2-2-2-2-2-2-2-2-2-2-2-2-2-2-2-2-|-3-3-3-2-3-3-3-2-3-2-0-5---------|
E |---------------------------------|---------------------------------|

BRIDGE:
G |-----------------------------------|
D |*-------------4---------------5---*|
A |*-----2-3---2---------2-3---2-----*|
E |--0-3-------------0-3--------------|

VERSE:
Cold cold change
G |---------------------------------|---------------------------------|
D |-4-4-4-4-4-4-4-4-4-4-4-4-4-4-4-4-|-4-4-4-4-4-4-4-4-4---------------|
A |---------------------------------|-------------------7-7-7-7-7-4-7-|
E |---------------------------------|---------------------------------|

G |---------------------------------|---------------------------------|
D |-4-4-4-4-4-4-4-4-4-4-4-4-4-4-4-4-|-7-7-7-7-0-0-0-0-5-5-5-5-5-5-5-0-|
G |---------------------------------|---------------------------------|
E |---------------------------------|---------------------------------|

G |---------------------------------|---------------------------------|
D |-4-4-4-4-4-4-4-4-4-4-4-4-4-4-4-4-|-4-4-4-4-4-4-4-4-4---------------|
A |---------------------------------|-------------------7-7-7-7-7-4-7-|
E |---------------------------------|---------------------------------|

G |---------------------------------|---------------------------------|
D |-4-4-4-4-4-4-4-4-4-4-4-4-4-4-4-4-|-7-7-7-7-0-0-0-0-5-5-5-5-5-5-5---|
G |---------------------------------|---------------------------------|
E |---------------------------------|---------------------------------|

CHORUS:
But no lasting change
G |---------------------------------|---------------------6-----------|
D |---------------------------------|-----------------------9-7-6-----|
A |-0---2-2-------------------------|-0---2-2-----2---4-4---------9-7-|
E |---------------0-2-2-0-2---2---2-|---------------------------------|

G |---------------------------------|---------------------------------|
D |---------------------------------|---------------------------------|
A |-0---2-2-----------------------0-|-2---4-4---4-4-4-5-5-5-5-5-5-----|
E |---------------0-2-2-0-2---2-----|-----------------------------0-1-|

PRE-VERSE 2:
G |---------------------------------|-------------------6-------------|
D |---------------------------------|---------------------9-7-6-------|
A |---------------------------------|---------------------------9-7---|
E |-2-2-2-2-2-2-2-2-2-2-2-2-2-2-2-2-|-2-2-2-2-2-2-2-2-----------------|

VERSE 2:
G |---------------------------------|---------------------------------|
D |-4-4-4-4-4-4-4-4-4-4-4-4-4-4-4-4-|-4-4-4-4-4-4-4-4-4---------------|
A |---------------------------------|-------------------7-7-7-7-7-4-7-|
E |---------------------------------|---------------------------------|

G |---------------------------------|---------------------------------|
D |-4-4-4-4-4-4-4-4-4-4-4-4-4-4-4-4-|-7-7-7-7-0-0-0-0-5-5-5-5-5-5-5---|
G |---------------------------------|---------------------------------|
E |---------------------------------|---------------------------------|

CHORUS 2:
G |---------------------------------|---------------------6-----------|
D |---------------------------------|-----------------------9-7-6-----|
A |-0---2-2-------------------------|-0---2-2-----2---4-4---------9-7-|
E |---------------0-2-2-0-2---2---2-|---------------------------------|

G |---------------------------------|---------------------------------|
D |---------------------------------|---------------------------------|
A |-0---2-2-----------------------0-|-2-2---4-------4-5-5-5-5-5-5-5-5-|
E |---------------0-2-2-0-2---2-----|---------------------------------|

G |-----------------|
D |-----------------|
A |-5-5-5-5-5-5-----|
E |-------------7\--|

BRIDGE

INTERLUDE/GUITAR SOLO:
G |---------------------------------|---------------------------------|
D |---------------------------------|---------------------------------|
A |-2-2-2-2-2-2-2-2/7-7-7-7-7-7-7-7-|-2-2-2-2-2-2-2-2/7-7-7-7-7-7-7-7-|
E |---------------------------------|---------------------------------|

G |---------------------------------|---------------------------------|
D |---------------------------------|-----------9-8-6---6---6-6-6-6---|
A |-6-6-6-6-6-6-6-6-6-6-6-6-6-6-6-6-|-6-6-6-6-6-----------------------|
E |---------------------------------|---------------------------------|

G |---------------------------------|---------------------------------|
D |---------------------------------|-----------------------------2-4-|
A |---------------2-2-2-2-2-2-2-2-2-|---------------2-3-3-3-3-3-3-----|
E |-3-3-3-3-3-3-3-------------------|-3-3-3-3-3-3-3-------------------|

G |---------------------------------|---------------------------------|
D |-5-5-5-5-5-5-5-5-7-7-7-7-7-7-7-7-|-8-8-868-8-868-8-868-8-8-8-8-8---|
A |---------------------------------|---------------------------------|
E |---------------------------------|---------------------------------|

G |---------------------------------|---------------------------------|
D |---------------------------------|---------------------------------|
A |---------------------------------|---------------------------------|
E |-2-2-2-2-2-2-2-2-2-2-2-2-2-2-2-2-|-3-3-3-3-3-3-3-3-3-3-3-3-3-------|

END CHORUS:
G |---------------------------------|---------------------6-----------|
D |---------------------------------|-----------------------9-7-6-----|
A |-0---2-2-------------------------|-0---2-2-----2---4-4---------9-7-|
E |---------------0-2-2-0-2---2---2-|---------------------------------|

G |---------------------------------|---------------------------------|
D |---------------------------------|---------------------------------|
A |-0---2-2-----------------------0-|-2-2---4---4-4-4-5-5-5-5-5-5-5-5-|
E |---------------0-2-2-0-2---0-----|---------------------------------|

G |-----------------|
D |-----------------|
A |-5-5-5-5-5-5-5-4-|
E |-----------------|

OUTRO:
G |---------------------------------|---------------------------------|
D |---------------------------------|---------------------------------|
A |-2-2-2-2-2-2-2-0---2-2-2-2-2-2-0-|---2-2-2-2-2-2-2-2-0-0-0-5-5-5-4-|
E |---------------------------------|---------------------------------|

G |---------------------------------|---------------------------------|
D |---------------------------------|---------------------------------|
A |-2-2-2-2-2-2-2-0---2-2-2-2-2-2-2-|-3-3-3-2-3-3-3-2-3-2-0-5-----0-1-|
E |---------------------------------|---------------------------2-----|

G |---------------------------------|---------------------------------|
D |---------------------------------|---------------------------------|
A |-2-2-2-2-2-2-2-2-2-2-2-2-2-2-2-2-|-2-2-2-2-2-2-2-2/14-0-0-0-5-5-5-4|
E |---------------------------------|---------------------------------|

G |---------------------------------|----------------------|---|
D |---------------------------------|----------------------|---|
A |-2-2-2-2-2-2-2-2-2-2-2-2-2-2-2-2-|-3-3-3-2-3-3-3-2-3----|---|
E |---------------------------------|----------------------|-0-|

Transcribed by Brian Camp
E-mail: cambrian@vianet.net.au
Добавлено: 19.02.2014
Другие материалы по этой песне:
  • Аккорды и текст

Страница создана 11.07.2012
http://primanota.ru/midnight-oil/cold-cold-change-chords.htm
Привет, Гость.
Предлагаем пройти революционный курс по гитаре.
Подарок от PrimaNota.Ru, забирай!